Log in

One click and you are in

Login with Facebook Login with Google

Why sign up and log in

Guitar Tabs Explorer
John Mayer tabs for In repair

Guitar tabs

-----------------|
| /  slide up    |
|   slide down  |
| h  hammer-on   |
| p  pull-off    |
| ~  vibrato     |
| +  harmonic    |
| x  Mute note   |
---------------- |

Tabbed By: mucho-mum
1st Verse

e---5---5----------- ---5--------------- ---5----------------5-------|
b---5---5--10---7--- ---5---2---7------- ---5----------------5-------|
g---6---6---7---5--- ---6---2---7---7--- ---6------7---7-7---6---7---|
d---7---5---7---7--- ---7---6---9---6--- ---7------7---7-7---7---6---|
a-----------9---6--- -------4-------7--- -------4--7h9-9-8-------7---|
e---5---5----------- ---5-------7------- ---5-7--------------5-------|


2nd Verse

e---5----------5----------------------------------------|
b---5--5-7-5---5--5-7-5----------------------7---/10----|
g---6--6-7-6---6--6-7-6----7--7---7-----7----5---/8-----|
d---7--7-7-7---5--5-7-5----7--7h9-7-7---7----7---/10----|
a--------------------------9--------7h9------6---/9-----|
e---5----------5----------------------------------------|

e---5----------------------------- ---5----------------5---|
b---5---2---7-7------------------- ---5----------------5---|
g---6---2---7-7h9p7-----------7--- ---6------7---7-7---6---|
d---7---6---9-------7h9-------6--- ---7------7---7-7---7---|
a-------4---------------7h9---7--- -------4--7h9-9-8-------|
e---5-------7--------------------- ---5-7--------------5---|

e------------------- ------------------- ----------------- -----------------|
b------------------- ------------------- ----------------- ---7-7-------2---|
g------------------- ---7--6---2----1--- ---7--6---2------ ---7-7h9p7---2---|
d------------------- ---9--7---4----2--- ---9--7---4------ ---9---------4---|
a---------7--------- ------------------- ----------------- -----------------|
e---5-7p9---9p7-5--- ---7--7---2----0--- ---7--7---2--14- ---7---------2---|

e------------------------------------|
b-------------9-10-9-9----9-9----9---|
g---8-9-8-9---9-11-9-9----9-9----9---|
d---9-9-9-9---9--9-9-9h10-9-9h10-9---|
a------------------------------------|
e---7-7-7-7---0----------------------|

e---5----------5-----------------------------0-----|
b---5--5-7-5---5--5-7-5----------------------7-----|
g---6--6-7-6---6--6-7-6----7--7---7-----7----5-----|
d---7--7-7-7---5--5-7-5----7--7h9-7-7---7----7-----|
a---x----------x-----------9--------7h9------6-----|
e---5----------5-----------------------------------|

e---5--------------- -------------------|
b---5---2---7------- ---9---7---7-------|
g---6---3---7---7--- ---9---9---7---7---|
d---7---2---9---6--- --11---8---9---6---|
a---------------7--- -------9-------7---|
e---5---2---7------- ---9-------7---0---|


Ending

e---5-5-5--------------------------------5---|
b---5-7-5-----------5-7---5-7~~-5-------5----|
g---6-7-6--2-6-----5------5-7~~-5------6-----|
d---7-7-7--4-7----6-------------------7------|
a----------------7---------------------------|
e---------------0-------------------5--------|


Tabbed By: mucho-mum

Other versions of In Repair

In repairChords
In repair acousticChords

Almost there ...

Sign in to get your own page with links to favourite songs and more. You are just one click away...

Login with Facebook Login with Google