Log in

One click and you are in

Login with Facebook Login with Google

Why sign up and log in

Guitar Tabs Explorer
Melvins tabs for Bar x the rocking m1

Guitar tabs

"bar-x-the rocking M"   by the Melvins
                        Album: Stag
                        bennield@hotmail.com
(Drop-D)
Intro - play twice:
A chord diagramE MajorE --------------------------------|--------------------------------
A chord diagramBB --------------------------------|--------------------------------
A chord diagramG+G --------------------------------|--------------------------------
d --------------------6-----------|---------------8----7---8-------
a 5---7---7---7-7-7-7-4---5---4---|5---7---7---7--6----5—--6—--8---
A chord diagramD MajorD 5---7---7---7-7-7-7-----5---4---|5---7---7---7-------------—-8---
      x           x x                  x       x

A chord diagramE MajorE --------------------------------|--------------------------------|
A chord diagramBB --------------------------------|--------------------------------|
A chord diagramG+G --------------------------------|--------------------------------|
d --------------------------------|5-----------4-—----------3------|
a 5---7---7---7-7-7-7-8---4/5-5---|3-----------2------------1------|
A chord diagramD MajorD 5---7---7---7-7-7-7-8---4/5-5---|--------------------------------|
      x                       x


Verse:
A chord diagramE MajorE --------------------------------|--------------------------------
A chord diagramBB --------------------------------|--------------------------------
A chord diagramG+G --------------------------------|--------------------------------
d --------------------------------|------------3-------3---3---3---
a 0h2-2-2-2-2-2-2---2-2-----2-2-2-|3---3---3---1-------1---1---1---
A chord diagramD MajorD 0h2-2-2-2-2-2-2---2-2-----2-2-2-|3---3---3-----------------------

A chord diagramE MajorE --------------------------------|--------------------------------
A chord diagramBB --------------------------------|--------------------------------
g --------------------------------|--------4-4-4-4-4-4-4-4-4-4-4---
d --------------------------------|--------4-4-4-4-4-4-4-4-4-4-4---
a 0h2-2---2---2-2-2-2-2-----2-2-2-|2-3-2---2-2-2-2-2-2-2-2-2-2-2-0-
A chord diagramD MajorD 0h2-2---2---2-2-2-2-2-----2-2-2-|2-3-2-------------------------0-
      x           x x           x  x                             x

A chord diagramE MajorE --------------------------------|--------------------------------
A chord diagramBB --------------------------------|--------------------------------
A chord diagramG+G --------------------------------|--------------------------------
d --------------------------------|3---3---3---3-------3---3---3/--
a 0h2-2-2-2-2-2-2---2-2-----2-2-2-|3---3---3---1-------1---1---1/--
A chord diagramD MajorD 0h2-2-2-2-2-2-2---2-2-----2-2-2-|3---3---3-----------------------

A chord diagramE MajorE --------------------------------|--------------------------------
A chord diagramBB --------------------------------|--------------------------------
A chord diagramG+G --------------------------------|--------------------------------
d --------------------------------|--------------------------------
a 0h2-2---2---2-2-2-2-3---2---3---|3---3---3---3-3-3-3-3---2---3---
A chord diagramD MajorD 0h2-2---2---2-2-2-2-3---2---3---|3---3---3---3-3-3-3-3---2---3---
      x           x x                            x x

A chord diagramE MajorE --------------------------------|--------------------------------|
A chord diagramBB --------------------------------|--------------------------------|
A chord diagramG+G --------------------------------|--------------------------------|
d --------------------------------|------------8---let-------------|
a 0h2-2-2-2-2-2-2---2-2-----2-2-2-|3---3---3---6---ring------------|
A chord diagramD MajorD 0h2-2-2-2-2-2-2---2-2-----2-2-2-|3---3---3-----------------------|

*BASS AND WOBBLE BOARD FOR 2 BARS*

Then:
A chord diagramE MajorE --------------------------------|--------------------------------|
A chord diagramBB --------------------------------|--------------------------------|
A chord diagramG+G --------------------------------|--------------------------------|
d -----------------------10h12----|--------------------------------|
a 10h12-------10h12---------------|10h12---------------------------| 8X
A chord diagramD MajorD --------------------------------|------------10b-----------------|


TRUMPET SOLO Backing - play 4x:
A chord diagramE MajorE --------------------------------|--------------------------------|
A chord diagramBB --------------------------------|--------------------------------|
A chord diagramG+G --------------------------------|--------------------------------|
d 7-7-7-7-7-7-7-7-7-7-7b-(8)--7---|7-7-7-7-7-7-7-7-7-7-7b-(8)--7---|
a 7-7-7-7-7-7-7-7-7-7-7b-(8)--7---|7-7-7-7-7-7-7-7-7-7-7b-(8)--7---|
A chord diagramD MajorD 7-7-7-7-7-7-7-7-7-7-7b-(8)--7---|7-7-7-7-7-7-7-7-7-7-7b-(8)--7---|
    x x x   x x   x x                x x x   x x   x x

A chord diagramE MajorE --------------------------------|
A chord diagramBB --------------------------------|
g ----5-----------5---------------|
d 5h7-5-7-7-7-5h7-5-7-5-----------|
a 5h7---7-7-7-5h7---7-5-----------|
A chord diagramD MajorD 5h7---7-7-7-5h7---7-5-----------|
          x x

One more Verse.

Then end with this:
A chord diagramE MajorE --------------------------------|
A chord diagramBB --------------------------------|
A chord diagramG+G --------------------------------|
d 7/(0)---------------------------|
a 7/(0)---------------------------|
A chord diagramD MajorD 7/(0)---------------------------|

Other versions of Bar X The Rocking M1

Bar x the rocking mTabs

Almost there ...

Sign in to get your own page with links to favourite songs and more. You are just one click away...

Login with Facebook Login with Google