Log in

One click and you are in

Login with Facebook Login with Google

Why sign up and log in

Guitar Tabs Explorer
Melt Banana tabs for If it is the deep sea

Guitar tabs with lyrics

Melt-Banana
"If it is the deep sea, i can see you there"
>From 'Cell-Scape'  [A-Zap, 2003]
This is all my own work.
/ = slide up
\ = slide down

Open A chord diagramG+G tuning (DGDGBD)


Intro part
(not sure about this cos i don't have a pitch shifter)
Alternates between two chords, one heavy and the other sounds like it may
be the same chord pitch-shifted. Maybe with the emphasis more on the
high (thin) strings. Play about with it, if you have the right equipment
(ooh er) it shouldn't take too long to pin down.

Play with bottleneck


                [----] pitch shift 2 octaves ( )
d-----------------2/----
B-----------------2/----
G---2/------------2/----
D---2/------------------
G---2/------------------
D---2/------------------


at [0:27]

d------
B------
G---5--
D---5--
G---5--
D------



Chorus part (play three times)

Clean tone

d----7-7-7-7--7-7-7-7--5-5-5-5--5-5-5-5--4-4-4-4-4-4-4-4-
B----7-7-7-7--7-7-7-7--5-5-5-5--5-5-5-5--4-4-4-4-4-4-4-4-
G----7-7-7-7--6-6-6-6--5-5-5-5--4-4-4-4--4-4-4-4-4-4-4-4-
D--------------------------------------------------------
G--------------------------------------------------------
D--------------------------------------------------------


d---2-2-2-2--2-2-2-2--2-2-2-2--2-2-2-2---|
B---2-2-2-2--2-2-2-2--2-2-2-2--2-2-2-2---|
G---2-2-2-2--1-1-1-1--2-2-2-2--1-1-1-1---|
D----------------------------------------|
G----------------------------------------|
D----------------------------------------|


at [1:07]

Distorted tone
(with bottleneck)

d----------------------------------------------------------------
B---15--14-16-14-16/--13--12-14-12-14/--12--14--16--10--9--10--9-
G----------------------------------------------------------------
D----------------------------------------------------------------
G----------------------------------------------------------------
D----------------------------------------------------------------


d---------------------------
B---------------------------
G---------------------------
D---13----5----x----3----x--
G---13----5----6----3----7--
D---13----5----4----3----5--


Play with bottleneck

                [----] pitch shift 2 octaves ( )
d-----------------2/----
B-----------------2/----
G---2/------------2/----
D---2/------------------
G---2/------------------
D---2/------------------


at [1:51]

d------
B------
G---5--
D---5--
G---5--
D------



Chorus part (play three times)

Clean tone

d----7-7-7-7--7-7-7-7--5-5-5-5--5-5-5-5--4-4-4-4-4-4-4-4-
B----7-7-7-7--7-7-7-7--5-5-5-5--5-5-5-5--4-4-4-4-4-4-4-4-
G----7-7-7-7--6-6-6-6--5-5-5-5--4-4-4-4--4-4-4-4-4-4-4-4-
D--------------------------------------------------------
G--------------------------------------------------------
D--------------------------------------------------------


d---2-2-2-2--2-2-2-2--2-2-2-2--2-2-2-2---|
B---2-2-2-2--2-2-2-2--2-2-2-2--2-2-2-2---|
G---2-2-2-2--1-1-1-1--2-2-2-2--1-1-1-1---|
D----------------------------------------|
G----------------------------------------|
D----------------------------------------|


at [2:40]

d--------------------------------------------------
B---15---14---13---12---12---11---10---9---10---9--
G--------------------------------------------------
D--------------------------------------------------
G--------------------------------------------------
D--------------------------------------------------


Ending

d---------------------------
B---------------------------
G---------------------------  x3
D---13----5----x----3----x--
G---13----5----6----3----7--
D---13----5----4----3----5--


d--------
B--------
G--------
D---13\0-
G---13\0-
D---13\0-


Comments, corrections etc welcome - venus_in_furs@postmaster.co.uk

Almost there ...

Sign in to get your own page with links to favourite songs and more. You are just one click away...

Login with Facebook Login with Google