Search tabs and chords

Search for song, artist or band

Log in

One click and you are in

Login with Facebook Login with Google

Why sign up and log in

Guitar Tabs Explorer
Megadeth bass tabs for I thought i knew it all

I Thought I Knew It All bass tab by Megadeth

Megadeth bass tabs for I thought i knew it all

Bass tabs

Title: I Thought I Knew It All
Album: Youthanasia
Tuning: Standard - 1/2 step down (D# G# C# F#)

   [Intro]
F#|---------------------------------|-----------------------------------|-----------------------------------|
C#|---------------------------------|-----------------------------------|-----------------------------------|
G#|---------------------------------|-----------------------------------|-----------------------------------|
D#|-2---------------1---------------|-0---0---2--3--0---0---5---5---1---|-0---0---5--6--0---0---5---5---3---|
F#|-----------------------------------|-----------------------------------|
C#|-----------------------------------|-----------------------------------|
G#|-----------------------------------|-----------------------------------|
D#|-0---0---2--3--0---0---5---5---1---|-0---0---5--6--0---0---5---5---3---|

   [Verse 1]
F#|-----------------------------------|-----------------------------------|
C#|-----------------------------------|-----------------------------------|
G#|-----------------------------------|-----------------------------------|
D#|-0---0---2--3--0---0---5---5---1---|-0---0---5--6--0---0---5---5---3---|


F#|-----------------------------------|-----------------------------------|
C#|-----------------------------------|-----------------------------------|
G#|-----------------------------------|-----------------------------------|
D#|-0---0---2--3--0---0---5---5---1---|-0---0---5--6--0---0---5---5---3---|


F#|-----------------------------------|-----------------------------------|
C#|-----------------------------------|-----------------------------------|
G#|-----------------------------------|-----------------------------------|
D#|-0---0---2--3--0---0---5---5---1---|-0---0---5--6--0---0---5---5---3---|


F#|-----------------------------------|-----------------------------------|
C#|-----------------------------------|-----------------------------------|
G#|-----------------------------------|-----------------------------------|
D#|-0---0---2--3--0---0---5---5---1---|-0---0---5--6--0---0---5---5---3---|

   [Pre-Chorus 1]
F#|---------------------------------|---------------------------------|
C#|-0---------------0---7-----------|---------------------------------|
G#|-------------------------8---5---|---------------------------------|
D#|---------------------------------|-6---------------6---6---5---1---|

F#|---------------------------------|-----------------2---------------|---------------------7-----------|
C#|---------------------------------|---------0---2-------3---5-------|-------------------------7---0---|
G#|---------------------------------|-0---0-----------------------3///|/5-------------------------------|
D#|-3---------------3---3---1---3---|---------------------------------|---------------------------------|


F#|---------------------------------|---------------------------------|---------------------------------|
C#|---------------------------------|---------------------------------|---------------------------------|
G#|---------------------------------|---------------------------------|---------------------------------|
D#|-6---------------6---6---5---6---|-7---------------7---7---5---7---|-8-------7---8---9-------8---9---|

   [Chorus]
F#|---------------------------------|---------------------------------|---------------------------------|
C#|---------------------------------|---------------------------------|---------------------------------|
G#|---------------------------------|---------------------------------|---------------------------------|
D#|-0---------------0---0-------5---|-8---------------8---8-------3---|-5---------------5---5-----------|


F#|---------------------------------|---------------------------------|---------------------------------|
C#|---------------------------------|---------------------------------|---------------------------------|
G#|-5---------------6---------------|---------------------------------|---------------------------------|
D#|-------------------------7\\\\\\\|\0---------------0---0-----------|-8---------------8---8-----------|

                                                                       [Verse 2]
F#|---------------------------------|---------------------------------|-----------------------------------|
C#|---------------------------------|---------------------------------|-----------------------------------|
G#|---------------------------------|-5---------------6---------------|-----------------------------------|
D#|-5---------------5---5-----------|-------------------------7\\\\\\\|\0---0---2--3--0---0---5---5---1---|


F#|-----------------------------------|-----------------------------------|
C#|-----------------------------------|-----------------------------------|
G#|-----------------------------------|-----------------------------------|
D#|-0---0---5--6--0---0---5---5---3---|-0---0---2--3--0---0---5---5---1---|


F#|-----------------------------------|-----------------------------------|
C#|-----------------------------------|-----------------------------------|
G#|-----------------------------------|-----------------------------------|
D#|-0---0---5--6--0---0---5---5---3---|-0---0---2--3--0---0---5---5---1---|


F#|-----------------------------------|-----------------------------------|
C#|-----------------------------------|-----------------------------------|
G#|-----------------------------------|-----------------------------------|
D#|-0---0---5--6--0---0---5---5---3---|-0---0---2--3--0---0---5---5---1---|

                                       [Pre-Chorus 2]
F#|-----------------------------------|---------------------------------|---------------------------------|
C#|-----------------------------------|-0-------------------7-----------|---------------------------------|
G#|-----------------------------------|-------------------------8---5---|---------------------------------|
D#|-0---0---5--6--0---0---5---5---3---|---------------------------------|-6---------------6---8---6---5---|


F#|---------------------------------|-----------------2---------------|-----------------7---------------|
C#|---------------------------------|---------0---2-------3---5-------|---------------------7-----------|
G#|---------------------------------|-0---0-----------------------3///|/5-----------------------5---8---|
D#|-3---------------3---3---1---3---|---------------------------------|---------------------------------|


F#|---------------------------------|---------------------------------|---------------------------------|
C#|---------------------------------|---------------------------------|---------------------------------|
G#|---------------------------------|---------------------------------|---------------------------------|
D#|-6---------------6---6---5---6---|-7---------------7---7---5---7---|-8-------7---8---9-------8---9---|

   [Chorus 2]
F#|---------------------------------|---------------------------------|---------------------------------|
C#|---------------------------------|---------------------------------|---------------------------------|
G#|---------------------------------|---------------------------------|---------------------------------|
D#|-0---------------0---0-----------|-8---------------8---8-------3---|-5---------------5---5-----------|


F#|---------------------------------|---------------------------------|---------------------------------|
C#|---------------------------------|---------------------------------|---------------------------------|
G#|-5---------------6---------------|---------------------------------|---------------------------------|
D#|-------------------------7\\\\\\\|\0---------------0---0-----------|-8---------------8---8-----------|

                                                                       [Solo]
F#|---------------------------------|---------------------------------|-------------------------------------|
C#|---------------------------------|---------------------------------|-------------------------------------|
G#|---------------------------------|-5---------------6---------------|-------------------------------------|
D#|-5---------------5---5-----------|-------------------------7\\\\\\\|\0---7---0--6------5---0--6---0--1---|


F#|-------------------------------------|-------------------------------------|
C#|-------------------------------------|-------------------------------------|
G#|---------------------------------5---|-------------------------------------|
D#|-0---7---0--6---0--5---0--6---0------|-0---7---0--6------5---0--6---0--1---|


F#|-------------------------------------|-------------------------------------|
C#|-------------------------------------|-------------------------------------|
G#|---------------------------------5---|-------------------------------------|
D#|-0---7---0--6---0--5---0--6---0------|-0---7---0--6------5---0--6---0--1---|


F#|-------------------------------------|-------------------------------------|
C#|-------------------------------------|-------------------------------------|
G#|---------------------------------5---|-------------------------------------|
D#|-0---7---0--6---0--5---0--6---0------|-0---7---0--6------5---0--6---0--1---|


F#|-------------------------------------|---------------------------------|---------------------------------|
C#|-------------------------------------|---------------------7-----------|---------------------------------|
G#|---------------------------------5---|-5---------------5-------8---5---|---------------------------------|
D#|-0---7---0--6---0--5---0--6---0------|---------------------------------|-6---------------6---8---6---5---|


F#|---------------------------------|-----------------2---------------|-----------------7---------------|
C#|---------------------------------|---------0---2-------3---5-------|---------------------7-----------|
G#|---------------------------------|-0---0-----------------------3---|-5-----------------------5---8---|
D#|-3---------------3---3---1---3---|---------------------------------|---------------------------------|


F#|---------------------------------|---------------------------------|---------------------------------|
C#|---------------------------------|---------------------------------|---------------------------------|
G#|---------------------------------|---------------------------------|---------------------------------|
D#|-6---------------6---6---5---6---|-7---------------7---7---5---7---|-8-------7---8---9-------8---9---|

   [Chorus 3]
F#|---------------------------------|---------------------------------|---------------------------------|
C#|---------------------------------|---------------------------------|---------------------------------|
G#|---------------------------------|---------------------------------|---------------------------------|
D#|-0---------------0---0-----------|-8---------------8---8-----------|-5---------------5---5-----------|


F#|---------------------------------|---------------------------------|---------------------------------|
C#|---------------------------------|---------------------------------|---------------------------------|
G#|-5---------------6---------------|---------------------------------|---------------------------------|
D#|-------------------------7-------|-0---------------0---0-----------|-8---------------8---8-------3---|

                                                                       [Outro]
F#|---------------------------------|---------------------------------|-----------------------------------|
C#|---------------------------------|---------------------------------|-----------------------------------|
G#|---------------------------------|-5---------------6---------------|--------------------7--------------|
D#|-5---------------5---5-----------|-------------------------7-------|-0-----------7-----------------7---|


F#|---------------------------------|---------------------------------|---------------------------------|
C#|---------------------------------|---------------------------------|---------------------------------|
G#|-----------------7-------5-------|-3-----------3---3---------------|-3-----------3---3-------2-------|
D#|-0-----------7-------------------|-----------------------------3---|---------------------------------|


F#|---------------------------------|---------------------------------|---------------------------------|
C#|---------------------------------|---------------------------------|---------------------------------|
G#|-0-----------0---0-----------2---|-3-----------2---3---2---0-------|---------------------------------|
D#|---------------------------------|-----------------------------3---|-2---------------1---------------|


F#|---------------------------------|---------------------------------|---------------------------------|
C#|---------------------------------|---------------------------------|---------------------------------|
G#|---------------------------------|---------------------------------|---------------------------------|
D#|-0-------------------------------|-2---------------1---------------|-0-------------------------------|


F#|---------------------------------|--------|
C#|---------------------------------|--------|
G#|-9---------------8---------------|-7------|
D#|---------------------------------|--------|



***********************************
| /   Slide up
| \   Slide down

Almost there ...

Sign in to get your own page with links to favourite songs and more. You are just one click away...

Login with Facebook Login with Google