Log in

One click and you are in

Login with Facebook Login with Google

Why sign up and log in

Guitar Tabs Explorer
Tobymac tabs for Im for you

Guitar tabs

I’m For You Tab--Tobymac
Tabbed and Submitted by Jack.

Intro: 2x
Light Distortion
|-----------------------------------------------------|
|-----------------------------------------------------|
|--4-4-4--x-x-x-7-7-7-x-x-x----------------7-7-7-x-x-x|
|--4-4-4--x-x-x-7-7-7-x-x-x--7-7-7--x-x-x--7-7-7-x-x-x|
|--2-2-2--x-x-x-5-5-5-x-x-x--7-7-7--x-x-x--5-5-5-x-x-x|
|----------------------------5-5-5--x-x-x-------------|
Verse:
Light Distortion
|-----------------------------------------------------|
|-----------------------------------------------------|
|--4-4-4--x-x-x-7-7-7-x-x-x----------------7-7-7-x-x-x|
|--4-4-4--x-x-x-7-7-7-x-x-x--7-7-7--x-x-x--7-7-7-x-x-x|
|--2-2-2--x-x-x-5-5-5-x-x-x--7-7-7--x-x-x--5-5-5-x-x-x|
|----------------------------5-5-5--x-x-x-------------|


Pre - Chorus:
|-----------------|
|-----------------|
|---4~------------|You can palm mute a little
|---4~--7~--------|here to make a nice sound.
|---2~--7~--------|
|-------5~--------|
          . . . .

Chorus:
|---------------------------------------|
|---------------------------------------|
|-----------7-7-7-7---------------------|
|--4-4-4-4--7-7-7-7-7-7-7-7---2-2-2-2---|3x, then rest
|--4-4-4-4--5-5-5-5-7-7-7-7---2-2-2-2---|of chorus goes..
|--2-2-2-2----------5-5-5-5---0-0-0-0---|

|-----------------------------------------------------|
|-----------------------------------------------------|
|--4-4-4--x-x-x-7-7-7-x-x-x----------------7-7-7-x-x-x|
|--4-4-4--x-x-x-7-7-7-x-x-x--7-7-7--x-x-x--7-7-7-x-x-x|2x
|--2-2-2--x-x-x-5-5-5-x-x-x--7-7-7--x-x-x--5-5-5-x-x-x|
|----------------------------5-5-5--x-x-x-------------|


Bridge:

|---------------------------------------|
|---------------------------------------|
|---4-4-4-4--7-7-7-7----------4-4-4-4---|2x
|---4-4-4-4--7-7-7-7--4-4-4-4-4-4-4-4---|
|---2-2-2-2--5-5-5-5--4-4-4-4-2-2-2-2---|
|---------------------2-2-2-2-----------|


Chorus 2x then

Outro same as verse.

Other versions of I'm For You

I'm for youChords

Almost there ...

Sign in to get your own page with links to favourite songs and more. You are just one click away...

Login with Facebook Login with Google