Song That Jane Likes by Dave Matthews Band

Song That Jane Likes chords by Dave Matthews Band

Guitar chords with lyrics

Song That Jane Likes
					by Dave Matthews

tabbed by TDog (tpl@acpub.duke.edu)

Chord Voicings:

	--2--------------5-----
	--3--1-----1--1--3-----
	--2--0--0--2--2--0--1--
	--0--2--0--3--2--4--2--
	-----3--2--3--0--5--2--
	--------3-----------0--
	 D C G F Am D2 E

Intro:
	 D    C    F      G
	And in..

       Am	   D
	I'll .... (repeat)

Verses:
	 G     C    Am	 F  D2
	Would ...		(repeat)

	  G     C     Am  F
	...While ..

	   E					Am  F   D2
	The ..

	etc.

End:
	 D   C    F       G
	And ..

	   Am		D
	I'll ..

	 D	 C   F      G
	Torching..

	   Am		D
	I'll ..

		  C  F       G
	With ..

 	 -----------5--3----------------3--
	 --2--1--3--3--3----1--1--1-----0--
	 --2--0--0--0--0----0--0--0-----0--
	 --1--2--4--4--4----2-----2-----0--
	 --0--3--5--5--5----3--2--0-----2--
	 ----------------------------2--3--
		(rhythm not indicated)

Other versions of Song That Jane Likes

Alternative guitar chords and tabs for Song That Jane Likes by Dave Matthews Band

Find guitar tabs and chords

A B C D E F G H I J K L M N O P Q R S T U V W X Y Z #