Search tabs and chords

Browse bands and artists

A B C D E F G H I J K L M N O P Q R S T U V W X Y Z #

Log in

[ Register here | Forgot password ]

Guitar Tabs Explorer
Print

Guitar tabs :

War tab by D.o.a.

Intro
e|-------------------------|---------------|
B|-------------------------|---------------| x4
G|-------------------------|---------------|
D|---------------8---8-----|---------------|
A|---10--10------6---6-----|--------8------|
E|---8---8-----------------|--------6------|


Verse
e|----------------|----------------|----------------|---------------|
B|----------------|----------------|----------------|---------------|
G|----------------|----------------|----------------|---------------| x3
D|----------------|----------------|----------------|--------8--8---|
A|---10--8---10---|---10--8---10---|---10--8---10---|---10---6--6---|
E|---8---6---8----|---8---6---8----|---8---6---8----|---8-----------|

e|----------------|----------------|----------------|---------------|
B|----------------|----------------|----------------|---------------|
G|----------------|----------------|----------------|---------------|
D|----------------|----------------|----------------|---------------|
A|---10--8---10---|---10--8---10---|---10--8---10---|---10---8--8---|
E|---8---6---8----|---8---6---8----|---8---6---8----|---8----6--6---|

Chorus
e|-------------------------|---------------|
B|-------------------------|---------------| x4
G|-------------------------|---------------|
D|---------------8---8-----|---------------|
A|---10--10------6---6-----|--------8------|
E|---8---8-----------------|--------6------|

Verse
e|----------------|----------------|----------------|---------------|
B|----------------|----------------|----------------|---------------|
G|----------------|----------------|----------------|---------------| x4
D|----------------|----------------|----------------|--------8--8---|
A|---10--8---10---|---10--8---10---|---10--8---10---|---10---6--6---|
E|---8---6---8----|---8---6---8----|---8---6---8----|---8-----------|

Chorus
e|-------------------------|---------------|
B|-------------------------|---------------| x6
G|-------------------------|---------------|
D|---------------8---8-----|---------------|
A|---10--10------6---6-----|--------8------|
E|---8---8-----------------|--------6------|


Solo
e|-------------------------------------|--------------------------------------|
B|-------------------------------------|--------------------------------------|
G|----------------------8--------------|--------------------------------------|
D|---8h10--10--10--10~-----10--8--10~--|---8h10~--8------8--------------------|
A|-------------------------------------|-------------10----10--8~-------------|
E|-------------------------------------|--------------------------------------|

                                                          x6
e|----------------------------------------|------------------|----------|
B|---------------8-----8---8---8----8-----|---8h11-11-11-11--|--8-11b~--|
G|--------8--10--10b~--10b-10b-10b--10b~--|------------------|----------|
D|--8/10----------------------------------|------------------|----------|
A|----------------------------------------|------------------|----------|
E|----------------------------------------|------------------|----------|

e|---------------------|
B|-----x-x---8--x-x----| x8
G|-----x-x---8--x-x----|
D|--10-x-x------x-x----|
A|---------------------|
E|---------------------|

Verse
e|----------------|----------------|----------|
B|----------------|----------------|----------|
G|----------------|----------------|----------| x4
D|----------------|----------------|---8--8---|
A|---10--8---10---|---10--8---10---|---6--6---|
E|---8---6---8----|---8---6---8----|----------|
Chorus
e|-------------------------|---------------|
B|-------------------------|---------------| x4
G|-------------------------|---------------|
D|---------------8---8-----|---------------|
A|---10--10------6---6-----|--------8------|
E|---8---8-----------------|--------6------|
Outro

e|--------|Let chord ring
B|--------|
G|--------|
D|--------|
A|--10----|
E|--8-----|

************************************

| x   Dead note
| h   Hammer-on
| r   Release
| B   Bend
| /   Slide up
| ~   Vibrato

Comments

D.o.a. guitar tabs for War