Guitar Tabs Explorer
Korn guitar tabs for Did my time

Did My Time tab


Be the first to rate

Did My Time tab by Korn

Guitar tabs

Print

Korn - Did My Time

Intro A chord diagramAA
[---------------------------------]
[---------------------------------]
[---------------------------------]
[---------------------------------]
[-5-7-7-7-5-7-7-7-5-7-7-7-5-7-7-7-]
[---------------------------------]

Intro B chord diagramBB
[---------------------------------]
[---------------------------------]
[---------------------------------]
[-5-8-8-8-5-8-8-8-5-8-8-8-5-8-8-8-]
[-x-x-x-x-x-x-x-x-x-x-x-x-x-x-x-x-]
[-3-6-6-6-3-6-6-6-3-6-6-6-3-6-6-6-]

Chorus
[----------------------------------]
[----------------------------------]
[----------------------------------]
[-7-7-7-----------------5-5-5------]
[------7-7-7-5-5-5-3-3-3-----2-2-2-]
[----------------------------------]

Verse
[-------------------------------------------------]
[-------------------------------------------------]
[-------------------------------------------------]
[-------------------------------------------------]
[---7-7---7-7---7-7---7-7---8-8---8-8---8-8---8-8-]
[-0-5-5-0-5-5-0-5-5-0-5-5-0-6-6-0-6-6-0-6-6-0-6-6-]

Bridge A chord diagramAA
[-----------------------------]
[-----------------------------]
[-----------------------------]
[---------------------------3-]
[---1-0---1-0-----1-0---1-0---]
[-3-----3-----1-3-----3-------]

Bridge B chord diagramBB
[---------------------]
[---------------------]
[---------------------]
[---------------------]
[---------------------]
[-3-3-4-3-3-3-3-4-3-1-]

Bridge C chord diagramCC

[-------------------------------------------------]
[-------------------------------------------------]
[-------------------------------------------------]
[-------------------------------------------------]
[---5-5---5-5---5-5---5-5---6-6---6-6---6-6---6-6-]
[-0-3-3---3-3---3-3---3-3---4-4---4-4---4-4---4-4-]

That's it. Really simple & easy like most korn songs.

Other versions of Did My Time

Did my time1Tabs

Comment this song and these guitar tabs

Do you have corrections, comments on the guitar tabs, thoughts about the song or a message to the author? Write them below.