Search tabs and chords

Search for song, artist or band

Log in

One click and you are in

Login with Facebook Login with Google

Why sign up and log in

Guitar Tabs Explorer
Korn guitar tabs for Alone i break

Guitar tabs with lyrics

This is korn's best song "Alone i break." The tuning is 1 and 1/2 steps
down. pretty low. Have fun.



intro. verse gtr 1  palm muted
C# chord diagramC#C#---------------------------------------------------
G# chord diagramG#G#---------------------------------------------------
E chord diagramEE ---------------------------------------------------
B chord diagramBB ---------------------------------------------------
F# chord diagramF#F#----77---  77------88----777-----77------77-----88-
C# chord diagramC#C#---------------------------------------------------
G# chord diagramG#G#-00--- 00------00-----0-------00------00----00-----

gtr 2 same tuning verse

-----------------------------------------------------
----0---------------------------0--------------------
----------------5------------------------5-----------
-----------------------------------------------------
--5--------3--------0------5---------3----------0----
-----------------------------------------------------
-----------------------------------------------------

gtr 1 (prechorus)

--------------------------------------------------------------------------
--------------------------------------------------------------------------
--------------------------------------------------------------------------
--------------------------------------------------------------------------
--------------------------------------------------------------------------
--------5---5---6---7---------77----5---------------5--5--6---7-----55--77
0 0 0-------------------00----------------0--0--0----------------00-------

i will soon be gone....repeat again while gtr 2 plays this

these feelings will be gone....
---------------------------------------------------------
---------------------------------------------------------
--4-4-4-4--4--4-4--4--4-4--------------------------------
-------------------------------7--7--7--7--7--7-7-7-7--7-
--2-2-2-2--2--2-2--2--2-2--------------------------------
-------------------------------5--5--5--5--5--5-5-5-5--5-
---------------------------------------------------------
repeat again

chorus

gtr 1
now i see the times they change........leaving us it seems.
----------------------------------------------12-------------12------
-12------------------------------------------------------------------
---------------------------------------------------------------------
---------------------------------------------------------------------
---------------------------------------------------------------------
---------------------------------------------------------------------
---------------------------------------------------------------------

i am hoping i can find    where to leave my hurt behind
12----------------------10-----------9----------------10-------------
---------------------------------------------------------------------
---------------------------------------------------------------------
---------------------------------------------------------------------
---------------------------------------------------------------------
---------------------------------------------------------------------
---------------------------------------------------------------------


------------------------------------------------------------------
----------------------------------------------------------------------
---------------REPEAT ABOVE AGAIN ------------------------------------
----------------------------------------------------------------------
----------------------------------------------------------------------
----------------------------------------------------------------------
----------------------------------------------------------------------

gtr 2 chorus

now i see the times they change    leaving us it seems so strange
------------------------------------------------------------------
------------------------------------------------------------------
-4--4--4--4--4--4--4-4-4------------------------------------------
--------------------------------------7--7--7--7--7--7--7--7-7-7--
-2--2--2--2--2--2--2-2-2------------------------------------------
--------------------------------------5--5--5--5--5--5--5--5-5-5--
------------------------------------------------------------------

i am hoping i can find    where to leave my hurt behind
------------------------------------------------------------------
------------------------------------------------------------------
------------------------------------------------------------------
--7--7--7--7--7--7--7--7--7--7----------5--5--5--5--5--5--5-5-5-5-
------------------------------------------------------------------
--5--5--5--5--5--5--5--5--5--5----------3--3--3--3--3--3--3-3-3-3-
------------------------------------------------------------------



REPEAT ABOVE AGAIN

solo gtr 1 or 2 does not matter whoever wants to do it hehe

---14------------14--------------------12----11---10h12----------
---12------------12------7-------5-----13----12---10h12----------
---14------------14------4-------4-----12----11------------------
---13------------13----------------------------------------------
-----------------------------------------------------------------
-----------------------------------------------------------------
-----------------------------------------------------------------
repeat twice

gtr 1 or 2 i reccomend the person who did not play the solo play
this part

more to come......
-----------------------------------------------------------
-----------------------------------------------------------
-----------------------------------------------------------
-----------------------------------------------------------
-----------------------------------------------------------
-------55-6-7------77---5-------55---6--7----------55---77-
000----------  00----------000--------------00-------------

Other versions of Alone I Break

Alone I breakChords

Almost there ...

Sign in to get your own page with links to favourite songs and more. You are just one click away...

Login with Facebook Login with Google