Guitar Tabs Explorer
Korn guitar tabs for Chaos lives in everything

Chaos Lives In Everything tab


Be the first to rate

Chaos Lives In Everything tab by Korn

Guitar tabs

Print

Tabbed By: FRr3AkOnALEaSh (smokin_05@hotmail.com)
Tuning: 7 String Tuned Down 1 Whole Step (A chord diagramAA D chord diagramDD G chord diagramGG C chord diagramCC F chord diagramFF A chord diagramAA D chord diagramDD)

Riff 1 (Intro/Pre-Verse)
D|------------------------------------|
A|------------------------------------|
F| chord diagramF|F|------------------------------------|
C| chord diagramC|C|------------------------------------|
G|--6/7~--6/7~--6/7~--6/7~---10~-5\~--|
D|--4/5~--4/5~--4/5~--4/5~-8--8~-5\~--|
A|-------------------------6-----3\~--|
                           .           Palm-mute

Riff 2 (Verse)(Guitar 2)
D|------------------------------------------|
A|------------------------------------------|
F| chord diagramF|F|----2-5------2-5------2-5-----------------|
C| chord diagramC|C|------------------------------------------|
G|--------5\-------5\-------5\--------------|
D|------------------------------------------|
A|------------------------------------------|

Riff 3 (Verse)(Guitar 1)
D|-------------------------------------------|
A|-------------------------------------------|
F| chord diagramF|F|-------------------------------------------|
C| chord diagramC|C|-------------------------------------------|
G|--7--------7--------7--------7~---10~-5\~--|
D|--5--------5--------5--------5~-8--8~-5\~--|
A|--------------------------------6-----3\~--|
                                  .           Palm-Mute

Riff 4 (Chorus)
D|---------------------------------------------------------|
A|---------------------------------------------------------|
F| chord diagramF|F|----------------5~---------------------------------------|
C| chord diagramC|C|--3~-5~-7~---7~-5~-5~---3~-3~-3~--------------3~-3~--5~--|
G|--3~-5~-7~---7~-3~-5~---3~-3~-3~---5~-5~-5~---3~-3~--5~--|
D|--1~-3~-5~---5~----3~---1~-1~-1~---5~-5~-5~---1~-1~--3~--|
A|-----------------------------------3~-3~-3~--------------|

Riff 5 (Bridge)
D|---------------------------------------|
A|---------------------------------------|
F| chord diagramF|F|---------------------------------------|
C| chord diagramC|C|--7-8--------7-8--------10~---7~-------|
G|--7-8-9~8~---7-8-9~8~---10~---7~-4~3~--|
D|--5-6-9~8~---5-6-9~8~----8~-7-5~-4~3~--|
A|------7~6~-------7~6~-------0----2~1~--|
        . .        . .        .    . .    Palm-Mute

Riff 6 (Bridge 2)
D|-------------------------------------|
A|-------------------------------------|
F| chord diagramF|F|-------------------------------------|
C| chord diagramC|C|--7-8--------7-8--------10~---7~-----|
G|--7-8-9~8~---7-8-9~8~---10~---7~-4---|
D|--5-6-9~8~---5-6-9~8~----8~-7-5~-4~--|
A|------7~6~-------7~6~-------0----2~--|
        . .        . .        .    .    Palm-Mute

Riff 7 (Outro)(Guitar 1)
D|-----------------------------------|
A|-----------------------------------|
F| chord diagramF|F|-----------------------------------|
C| chord diagramC|C|-----------------------------------|
G|--6/7~--6/7~--6/7~--6/7~---10~-5~--|
D|--4/5~--4/5~--4/5~--4/5~-8--8~-5~--|
A|-------------------------6-----3~--|
                           .          Palm-Mute
Riff 8 (Outro)(Guitar 2)
D|-------------------------------------------------------------12~--|
A|--------15~-----------------15~----------13~----15~----13---------|
F| chord diagramF|F|--14-12-----12-14-12-14~-12-----12-14-12-----12-----12----12------|
C| chord diagramC|C|------------------------------------------------------------------|
G|------------------------------------------------------------------|
D|------------------------------------------------------------------|
A|------------------------------------------------------------------|

Riff 9 (Outro)(Guitar 2)
D|-------------------------------------------------------------13~--|
A|--------15~-----------------15~----------13~----15~----13----17~--|
F| chord diagramF|F|--14-12-----12-14-12-14~-12-----12-14-12-----12-----12----12------|
C| chord diagramC|C|------------------------------------------------------------------|
G|------------------------------------------------------------------|
D|------------------------------------------------------------------|
A|------------------------------------------------------------------|

************************************

| / - slide up
| \ - slide down
| h - hammer-on
| p - pull-off
| ~ - let ring (until next note)
| ()- optional note
| . - Palm-Mute

Comment this song and these guitar tabs

Do you have corrections, comments on the guitar tabs, thoughts about the song or a message to the author? Write them below.