Log in

One click and you are in

Login with Facebook Login with Google

Why sign up and log in

Guitar Tabs Explorer
Jet bass tabs for Look what youve done

Bass tabs

1ST VERSE
G|--------|
D|--------|
A|--------|
E|--------|
1ST CHORUS
G|--------------------------------|  |--------|
D|*-------------------------------|  |--------|
A|*-----------------3---2---------|  |---5~---|
E|---1-------3--------------5---3-|X2 |--------|
2ND VERSE
G|----------------------------------------------------------------|
D|----------------------------------------------------------------|
A|---3-------------------------------3------------------------5---|
E|------------3-----5---3-----1--------------3------5---3---------|
2ND CHORUS
G|--------------------------------| |----------------------------------------|
D|--------------------------------| |----------------------------------------|
A|------------------3--2----------| |----------------------------------------|
E|----1-----3---------------5---3-|X2|--1-----1--1--1--1----3-----3--3--3--3--|

G|---------------------------------------------------------|
D|---------------------------------------------------------|
A|--------3/-6---------5--8-8--5---8--8-----3--5--3--------|
E|--4--4---------6--6--------------------5-----------5--1--|X2

G|-------------------------------|
D|-------------------------------|
A|--------3/-6---------5--8-8--5-|
E|--4--4---------6--6------------|
3RD VERSE
G|--------|
D|--------|
A|--------|
E|--------|
3RD CHORUS – SAME AS 2ND
END WITH
|---------------------|
|---------------------|
|----------------3----|
|--4------6-----------|

Almost there ...

Sign in to get your own page with links to favourite songs and more. You are just one click away...

Login with Facebook Login with Google