Guitar Tabs Explorer
Kiss bass tabs for Charisma

Charisma bass tab


Be the first to rate

Charisma bass tab by Kiss

Bass tabs

Print

Charisma
KISS (Gene Simmons)

 Main Melody...
G|---------------------------------------------------------|
D|---------------------------------------------------------|
A|-------------------------2---------------------2-1-------|
E|-2-4-4--4-4-4--4-4-4---2---2-4-4--4-4-4--4-4-4-----4-0-0-|

G|--------------------------------------------------------|
D|--------------------------------------------------------|
A|---------------2-1---------------------2-4-2------------|
E|-0-0-0--0-0-0------2-4-4--4-4-4--4-4-4------------------|

 lyrics...
G|--------------------------------------------------------|
D|--------------------------------------------------------|
A|---------------6-6--6-6-6--6--------------6-6--6-6-6--6-|
E|-4-4--4-4-4--4----------------4-4--4-4-4-4--------------|

G|--------------------------------------------------------|
D|--------------------------------------------------------|
A|--------------------------------------------------------|
E|-0-0-0-0-0-0-0-0-2--(repeat)----------------------------|

 guitar solo "build up.."
G|---------------------------------------------------------|
D|---------------------------------------------------------|
A|-----------------------------7-7--7-7-7--7-9-9--9-9-9--9-|
E|-2-2--2-2-2--2-4-4--4-4-4--4-----------------------------|

G|--------------------------------------------------------|
D|--------------------------------------------------------|
A|-2-2--2-2-2--2-4-4--4-4-4--4-6-6-6-6-6-6-6-6-6-6-6-6--/-|
E|--------------------------------------------------------|



************************************

| /  Slide up

Comment this song and these bass tabs

Do you have corrections, comments on the bass tabs, thoughts about the song or a message to the author? Write them below.