Log in

One click and you are in

Login with Facebook Login with Google

Why sign up and log in

Guitar Tabs Explorer
Avril Lavigne bass tabs for Anything but ordinary

Anything But Ordinary bass tab by Avril Lavigne

Avril Lavigne bass tabs for Anything but ordinary

Bass tabs

Verse:
G|----------------------------|
D|----------------------------|
A|-3-3-3----------------------|
E|------3-3-3-5-5-5-1-1-1-3-3-|


Chorus:
G|-------------------------------------------------------------|
D|-------------------------------------------------------------|
A|----------------3-3-2-2--------------------------------------|
E|-1-1-1-1-3-3-3-3-------5-5-5-5-1-1-1-1-3-3-3-3-5-5-5-5-5-5-5-|

G|---------------------------------------|
D|---------------------------------------|
A|-3-3-3-3-3-3-----------3-2-0-0-0-0-0-0-|
E|------------1-1-1-1-1-1----------------|

	       . . . anything but ordinary please
G|-------------------------------------|
D|-------------------------------------|
A|-3-3-3-3-3-3-1-1-1-1-1-1-0-0-0-0-0-0-|
E|-------------------------------------|


Bridge:
G|----------------------------------------------------|
D|-2-2-2-0-0-0--------------------0-0-0-2-0-0-0-2-4>>-|
A|------------0-0-0-----2-2-2-------------------------|
E|-----------------2-2-2-----2-2-2--------------------|

Almost there ...

Sign in to get your own page with links to favourite songs and more. You are just one click away...

Login with Facebook Login with Google