Search tabs and chords

Search for song, artist or band

Log in

One click and you are in

Login with Facebook Login with Google

Why sign up and log in

Guitar Tabs Explorer
Kiss guitar chords for Back to the stone age

Guitar chords with lyrics

BACK TO THE STONE AGE - KISS
MONSTER


Eb-------------------------------------------------------------|
Bb-------------------------------------------------------------|
Gb------4-4---------------------------4-4----------------------|
Db--4-4-4-4-4---------------------4-4-4-4-4--------------------|
Ab--4-4-2-2-4---------------------4-4-2-2-4--------------------|
Eb--2-2-----2---------------------2-2-----2--------------------|
Eb-------------------------------------------------------------|
Bb-------------------------------------------------------------|
Gb------4-4-4------4-4-4------4-4-4------4-4-4-----------------|
Db--4-4-4-4-4--4-4-4-4-4--4-4-4-4-4--4-4-4-4-4-----------------|
Ab--4-4-2-2-2--4-4-2-2-2--4-4-2-2-2--4-4-2-2-2-----------------|
Eb--2-2--------2-2--------2-2--------2-2-----------------------|


Eb-------------------------------------------------------------|
Bb-------------------------------------------------------------|
Gb------4-4-4------4-4-4------4-4-4------4-4-4-----------------|
Db--4-4-4-4-4--4-4-4-4-4--4-4-4-4-4--4-4-4-4-4-----------------|
Ab--4-4-2-2-2--4-4-2-2-2--4-4-2-2-2--4-4-2-2-2-----------------|
Eb--2-2--------2-2--------2-2--------2-2-----------------------|


Eb-------------------------------------------------------------|
Bb-------------------------------------------------------------|
Gb------------2--4--------------------4-4-4-------4-4-4--------|
Db--4--X-X-X--2--4--X-X-X-X-X-X---4-4-4-4-4---4-4-4-4-4--------|
Ab--4--X-X-X--0--2--X-X-X-X-X-X---4-4-2-2-2---4-4-2-2-2--------|
Eb--2--X-X-X--------X-X-X-X-X-X---2-2---------2-2--------------|
IN THE BEGGINING THERE WAS DARKNESS
AND TEHRE WAS LIGHT

Eb-------------------------------------------------------------|
Bb-------------------------------------------------------------|
Gb------------2--4--------------------4-4-4-------4-4-4--------|
Db--4--X-X-X--2--4--X-X-X-X-X-X---4-4-4-4-4---4-4-4-4-4--------|
Ab--4--X-X-X--0--2--X-X-X-X-X-X---4-4-2-2-2---4-4-2-2-2--------|
Eb--2--X-X-X--------X-X-X-X-X-X---2-2---------2-2--------------|
IN DAWN OF CREATION THERE WAS FEAR
IN THE DEAD OF NIGHT


Eb-------------------------------------------------------------|
Bb-------------------------------------------------------------|
Gb-------------------------------------------------------------|
Db--4--X-X-X-X--X-X-X-X--X-X-X-X-------------------------------|
Ab--4--X-X-X-X--X-X-X-X--X-X-X-X-------------------------------|
Eb--2--X-X-X-X--X-X-X-X--X-X-X-X-------------------------------|
THERE WAS THUNDER, THERE WAS FLAME


Eb-------------------------------------------------------------------------------------|
Bb-------------------------------------------------------------------------------------|
Gb-----------4-4-4-4-4-4--7-7-7-7--7-7-7-7--7-7-7--9-9---------------------------------|
Db--4-4-4-4--4-4-4-4-4-4--7-7-7-7--7-7-7-7--7-7-7--9-9--9-9-9-9--9-9-9-9--9-9-9-9--999-|
Ab--4-4-4-4--2-2-2-2-2-2--5-5-5-5--5-5-5-5--5-5-5--7-7--9-9-9-9--9-9-9-9--9-9-9-9--999-|
Eb--2-2-2-2---------------------------------------------7-7-7-7--7-7-7-7--7-7-7-7--777-|
    THE WHOLE WIDE WORLD   DON?T WANNA RUN, DON?T WANNA  I KEEP THE FIRE BURNING DEEP
    IS DRIVING ME INSANE,  HIDE                          INSIDE


Eb----------------------------------------------------------------------------|
Bb----------------------------------------------------------------------------|
Gb--7-7-7-7--7-7-7-7--7-7-7--9-9----------------------------------------------|
Db--7-7-7-7--7-7-7-7--7-7-7--9-9--9-9-9-9--9-9-9-9--11-11-11-11-11-11-11-11---|
Ab--5-5-5-5--5-5-5-5--5-5-5--7-7--9-9-9-9--9-9-9-9--11-11-11-11-11-11-11-11---|
Eb--------------------------------7-7-7-7--7-7-7-7---9--9--9--9--9--9--9--9---|
    I HOWL AT THE MOON, I PRAY    I GOT A chord diagramA majorA ONE WAY    KINGDOM COME
    TO THE SUN                    TICKET TO


Eb---------------------------------------------------------------|
Bb---------------------------------------------------------------|
Gb------4-4-4------4-4-4------4-4-4------------------------------|
Db--4-4-4-4-4--4-4-4-4-4--4-4-4-4-4----2-------------------------|
Ab--4-4-2-2-2--4-4-2-2-2--4-4-2-2-2----2-------------------------|
Eb--2-2--------2-2--------2-2------------------------------------|
    I?M GOING  THE STONE  BACK WHERE I BELONG
    BACK TO    AGE


Eb-------------------------------------------------------------------|
Bb-------------------------------------------------------------------|
Gb------4-4-4------4-4-4--9-9-9-9-9-9-9-9--6-6-6-6-6-6-6-6-----------|
Db--4-4-4-4-4--4-4-4-4-4--9-9-9-9-9-9-9-9--6-6-6-6-6-6-6-6-----------|
Ab--4-4-2-2-2--4-4-2-2-2--7-7-7-7-7-7-7-7--4-4-4-4-4-4-4-4-----------|
Eb--2-2--------2-2---------------------------------------------------|
    I?M GOING  THE STONE  BACK WHERE I     FROM
    BACK TO    AGE        COME


Eb-------------------------------------------------------------|
Bb-------------------------------------------------------------|
Gb------------2--4--------------------4-4-4-------4-4-4--------|
Db--4--X-X-X--2--4--X-X-X-X-X-X---4-4-4-4-4---4-4-4-4-4--------|
Ab--4--X-X-X--0--2--X-X-X-X-X-X---4-4-2-2-2---4-4-2-2-2--------|
Eb--2--X-X-X--------X-X-X-X-X-X---2-2---------2-2--------------|
    TELL THE WORLD I?M GOING BACK WHERE I BELONG


Eb-------------------------------------------------------------|
Bb-------------------------------------------------------------|
Gb------------2--4--------------------4-4-4-------4-4-4--------|
Db--4--X-X-X--2--4--X-X-X-X-X-X---4-4-4-4-4---4-4-4-4-4--------|
Ab--4--X-X-X--0--2--X-X-X-X-X-X---4-4-2-2-2---4-4-2-2-2--------|
Eb--2--X-X-X--------X-X-X-X-X-X---2-2---------2-2--------------|
    TO A chord diagramA majorA PLACE WHERE THE SKY IS CLEAR, THE WIND IS STRONG


Eb--------------------------------------------------------------------------|
Bb--------------------------------------------------------------------------|
Gb----7-7-7-7--7-7-7-7--7-7-7--9-9------------------------------------------|
Db----7-7-7-7--7-7-7-7--7-7-7--9-9--9-9-9-9--9-9-9-9--9-9-9-9--9-9-9--------|
Ab----5-5-5-5--5-5-5-5--5-5-5--7-7--9-9-9-9--9-9-9-9--9-9-9-9--9-9-9--------|
Eb----------------------------------7-7-7-7--7-7-7-7--7-7-7-7--7-7-7--------|
      CLIMB THE MOUNTAINS CROSS     CLEAR IN MY SOUL I WANT TO BE FREE
      THE SEAS


Eb----------------------------------------------------------------------------|
Bb----------------------------------------------------------------------------|
Gb--7-7-7-7--7-7-7-7--7-7-7--9-9----------------------------------------------|
Db--7-7-7-7--7-7-7-7--7-7-7--9-9--9-9-9-9--9-9-9-9--11-11-11-11-11-11-11-11---|
Ab--5-5-5-5--5-5-5-5--5-5-5--7-7--9-9-9-9--9-9-9-9--11-11-11-11-11-11-11-11---|
Eb--------------------------------7-7-7-7--7-7-7-7---9--9--9--9--9--9--9--9---|
    SIT ON THE THRONE LET EM      CAUSE I?M A chord diagramA majorA STONE  MAN (YEAH)
    KISS THE RING                 AGE


Eb-------------------------------------------------------------|
Bb-------------------------------------------------------------|
Gb------4-4-4------4-4-4------4-4-4----------------------------|
Db--4-4-4-4-4--4-4-4-4-4--4-4-4-4-4----2-----------------------|
Ab--4-4-2-2-2--4-4-2-2-2--4-4-2-2-2----2-----------------------|
Eb--2-2--------2-2--------2-2----------------------------------|
    I?M GOING  THE STONE  BACK WHERE I BELONG
    BACK TO    AGE


Eb-------------------------------------------------------------------|
Bb-------------------------------------------------------------------|
Gb------4-4-4------4-4-4--9-9-9-9-9-9-9-9--6-6-6-6-6-6-6-6-----------|
Db--4-4-4-4-4--4-4-4-4-4--9-9-9-9-9-9-9-9--6-6-6-6-6-6-6-6-----------|
Ab--4-4-2-2-2--4-4-2-2-2--7-7-7-7-7-7-7-7--4-4-4-4-4-4-4-4-----------|
Eb--2-2--------2-2---------------------------------------------------|
    I?M GOING  THE STONE  BACK WHERE I     FROM
    BACK TO    AGE        COME


Eb--------------------------------------------------------------------------|
Bb--------------------------------------------------------------------------|
Gb----7-7-7-7--7-7-7-7--7-7-7--9-9------------------------------------------|
Db----7-7-7-7--7-7-7-7--7-7-7--9-9--9-9-9-9--9-9-9-9--9-9-9-9--9-9-9--------|
Ab----5-5-5-5--5-5-5-5--5-5-5--7-7--9-9-9-9--9-9-9-9--9-9-9-9--9-9-9--------|
Eb----------------------------------7-7-7-7--7-7-7-7--7-7-7-7--7-7-7--------|


Eb--------------------------------------------------------------------------|
Bb--------------------------------------------------------------------------|
Gb----7-7-7-7--7-7-7-7--7-7-7--9-9------------------------------------------|
Db----7-7-7-7--7-7-7-7--7-7-7--9-9--9-9-9-9--9-9-9-9--9-9-9-9--9-9-9--------|
Ab----5-5-5-5--5-5-5-5--5-5-5--7-7--9-9-9-9--9-9-9-9--9-9-9-9--9-9-9--------|
Eb----------------------------------7-7-7-7--7-7-7-7--7-7-7-7--7-7-7--------|


Eb-------------------------------------------------------------|
Bb-------------------------------------------------------------|
Gb------4-4-4------4-4-4------4-4-4----------------------------|
Db--4-4-4-4-4--4-4-4-4-4--4-4-4-4-4----2-----------------------|
Ab--4-4-2-2-2--4-4-2-2-2--4-4-2-2-2----2-----------------------|
Eb--2-2--------2-2--------2-2----------------------------------|


Eb-------------------------------------------------------------------|
Bb-------------------------------------------------------------------|
Gb------4-4-4------4-4-4--9-9-9-9-9-9-9-9--6-6-6-6-6-6-6-6-----------|
Db--4-4-4-4-4--4-4-4-4-4--9-9-9-9-9-9-9-9--6-6-6-6-6-6-6-6-----------|
Ab--4-4-2-2-2--4-4-2-2-2--7-7-7-7-7-7-7-7--4-4-4-4-4-4-4-4-----------|
Eb--2-2--------2-2---------------------------------------------------|


Eb---------------------------------------------|
Bb---------------------------------------------|
Gb--9-9-9-9-9-9-9-9--6-6-6-6-6-6-6-6-----------|
Db--9-9-9-9-9-9-9-9--6-6-6-6-6-6-6-6-----------|
Ab--7-7-7-7-7-7-7-7--4-4-4-4-4-4-4-4-----------|
Eb---------------------------------------------|


Eb-------------------------------------------------------------|
Bb-------------------------------------------------------------|
Gb------4-4---------------------------4-4----------------------|
Db--4-4-4-4-4---------------------4-4-4-4-4--------------------|
Ab--4-4-2-2-4---------------------4-4-2-2-4--------------------|
Eb--2-2-----2---------------------2-2-----2--------------------|
              I LIKE IT


Eb-------------------------------------------------------------|
Bb-------------------------------------------------------------|
Gb------4-4-4------4-4-4------4-4-4------4-4-4-----------------|
Db--4-4-4-4-4--4-4-4-4-4--4-4-4-4-4--4-4-4-4-4-----------------|
Ab--4-4-2-2-2--4-4-2-2-2--4-4-2-2-2--4-4-2-2-2-----------------|
Eb--2-2--------2-2--------2-2--------2-2-----------------------|
                          YEAH, YEAH, YEAH, YEAH


Eb-------------------------------------------------------------|
Bb-------------------------------------------------------------|
Gb------4-4-4------4-4-4------4-4-4------4-4-4-----------------|
Db--4-4-4-4-4--4-4-4-4-4--4-4-4-4-4--4-4-4-4-4-----------------|
Ab--4-4-2-2-2--4-4-2-2-2--4-4-2-2-2--4-4-2-2-2-----------------|
Eb--2-2--------2-2--------2-2--------2-2-----------------------|
    BACK TO THE STONE AGE  BACK TO THE STONE AGE


Eb--------------------------------------------------|
Bb--------------------------------------------------|
Gb------4-4-4------4-4-4--------4-4-----------------|
Db--4-4-4-4-4--4-4-4-4-4---4-4--4-4--4--------------|
Ab--4-4-2-2-2--4-4-2-2-2---4-4--2-2--4--------------|
Eb--2-2--------2-2---------2-2-------2--------------|

Back To The Stone Age chords

Kiss guitar chords for Back to the stone age "Back To The Stone Age" is a song from Kiss' 2012 album "Monster".

"Back To The Stone Age" is written by the whole band: Gene Simmons, Paul Stanley, Tommy Thayer and Eric Singer.

data-matched-content-ui-type="image_card_stacked"

Almost there ...

Sign in to get your own page with links to favourite songs and more. You are just one click away...

Login with Facebook Login with Google