Log in

One click and you are in

Login with Facebook Login with Google

Why sign up and log in

Guitar Tabs Explorer
Earth Wind & Fire tabs for Shining star

Guitar tabs with lyrics

SHINING STAR

As recorded by Earth, Wind & Fire
(From the 1975 Album THAT'S THE WAY OF THE WORLD)

Words and Music by Maurice White, Philip Bailey & Larry Dunn

Transcribed by Slowhand
Gtr I (E A D G B E) - 'Electric Guitar 1'
Gtr II (E A D G B E) - 'Electric Guitar 2'
Gtr III (E A D G B E) - 'Brass Section'


 Intro 1
  Q=106
  N.C.
 4/4
  Gtr I (El. Gtr.)
  PM--|   PM  PM---------------------
              |-3-|
  S S S S S S A chord diagramE MajorE   S A chord diagramE MajorE   A chord diagramE MajorE   A chord diagramE MajorE   S S
|-----------------------------------|
|-----------------------------------|
|-----------------------------------|
|-------------------2-------------2-|
|---------2---4---2-----4---2---4---|
|-0-0-4-----------------------------|
|
| Gtr II (El. Gtr.)
| s s A chord diagramE MajorE   s S s S   s S s S s S s S
|-----------------------------------|
|-3-3s2---0---2-----0---2---0---2---|
|-4-4s2---0---2-----0---2---0---2---|
|-----------------------------------|
|-----------------------------------|
|-----------------------------------|

 ---|   PM--------|     PM--------------|   PM----|   PM  PM  PM|
                                            |-3-|
  S S A chord diagramE MajorE A chord diagramE MajorE   S S S S A chord diagramE MajorE   A chord diagramE MajorE   S S   A chord diagramE MajorE   A chord diagramE MajorE S S A chord diagramE MajorE   S S S S S S S S S
|-------------------------------|-----------------------------------|
|-------------------------------|-----------------------------------|
|-------------------------------|-----------------------------------|
|-5-5s4-2-----------------------|-----------------2-----------------|
|-----------4-2-5-5s4---2---4-2-|-------2---4---2-----4---2---4-2---|
|-------------------------------|-0---4-----------------------------|
|
| s s A chord diagramE MajorE s S s S s S s S s S s S   s s A chord diagramE MajorE s S s S   s S s S s S s S
|-------------------------------|-----------------------------------|
|-3-3s2-0---2---0---2---0---2---|-3-3s2-0---2-----0---2---0---2-----|
|-4-4s2-0---2---0-------0---2---|-4-4s2-0---2-----0---2---0---2-----|
|-------------------------------|-----------------------------------|
|-------------------------------|-----------------------------------|
|-------------------------------|-----------------------------------|


                                    Intro 2
                                     A chord diagramE7E7+9
        PM------|        PM-----|
  S S A chord diagramE MajorE A chord diagramE MajorE   S S S S A chord diagramE MajorE    A chord diagramE MajorE    S S    Q        H.
|---------------------------------||-----------------------------------|
|---------------------------------||-----------------------------------|
|---------------------------------||-----------------------------------|
|-5-5S4-2-------------------------||-----------------------------------|
|-----------4-2-5-5S4----2----4-2-||----------2------------------------|
|---------------------------------||----------0------------------------|
|
| s s A chord diagramE MajorE s S s S s S s S  s  S s S    S S S S  S  S S S S S S S S S S S
|---------------------------------||-----------------------------------|
|-3-3s2-0---2---0---2----0----2---||-8-8-8-8--x--8-x-8-x-x-x-x-x-x-x-x-|
|-4-4s2-0---2---0---2----0----2---||-7-7-7-7--x--7-x-7-x-x-x-x-x-x-x-x-|
|---------------------------------||-6-6-6-6--x--6-x-6-x-x-x-x-x-x-x-x-|
|---------------------------------||-7-7-7-7--x--7-x-7-x-x-x-x-x-x-x-x-|
|---------------------------------||-----------------------------------|
|
| Gtr III (Horns arr. for Gtr.)
| H             Q        S  S A chord diagramE MajorE      Q        H                Q
|-----------------------15-15-----||---------24\-----------------------|
|-----------------------15-15-----||---------24\-----------------------|
|-----------------------13-13-----||-----------------------------------|
|---------------------------------||-----------------------------------|
|---------------------------------||-----------------------------------|
|---------------------------------||-----------------------------------|


  A chord diagramE MajorE   A chord diagramE MajorE   S   A chord diagramE MajorE S S S  A chord diagramE MajorE    +E.    S
|-----------/16-x--------------------|
|-----------/15-x--------------------|
|------------------------------------|
|------------------------------------|
|-----------------x-x----------------|
|-0-------------------17---(17)\---x-|
|
| S S S S S   A chord diagramE MajorE S S S  S S   A chord diagramE MajorE   S S
|------------------------------------|
|-8-8-8-8-8---8-8-x-x--x-x---8---x-x-|
|-7-7-7-7-7---7-7-x-x--x-x---7---x-x-|
|-6-6-6-6-6---6-6-x-x--x-x---6---x-x-|
|-7-7-7-7-7---7-7-x-x--x-x---7---x-x-|
|------------------------------------|
|
| W
|------------------------------------|
|------------------------------------|
|------------------------------------|
|------------------------------------|
|------------------------------------|
|------------------------------------|


  PM----|       PM------|     PM---
  S S S S S S S S S S S S S S S S
|---------------------------------|
|---------------------------------|
|---------------------------------|
|---------------------------------|
|---7-5---7p5-------7-5---7p5-----|
|-0-----0-----x-0-------7-----7-5-|
|
| S S S S S S S S S S S S S S S S
|---------------------------------|
|-8-8-8-8-x-8-x-8-x-x-x-x-x-x-x-x-|
|-7-7-7-7-x-7-x-7-x-x-x-x-x-x-x-x-|
|-6-6-6-6-x-6-x-6-x-x-x-x-x-x-x-x-|
|-7-7-7-7-x-7-x-7-x-x-x-x-x-x-x-x-|
|---------------------------------|


                                        1st Verse
                                         A chord diagramE7E7+9
 -------|         PM--------|     PM|
  S S S S A chord diagramE MajorE       S S S S S S S S S S    S S A chord diagramE MajorE   A chord diagramE MajorE   S S S S A chord diagramE MajorE   A chord diagramE MajorE S S
|-------------------------------------||--------------------------------|
|-------------------------------------||--------------------------------|
|-------------------------------------||--------------------------------|
|---------5b5.5-----------------------||---------5----------------------|
|---7-5-----------7-5---7-5---7p5-----||-7-7-5-------7-5-7-7-5---x-x-x--|
|-4-----7-------------0-----7-----7-5-||--------------------------------|
|
| S S S S S     A chord diagramE MajorE   S S S S S A chord diagramE MajorE   S S    S S S S S A chord diagramE MajorE   S S S S S A chord diagramE MajorE S S
|-------------------------------------||--------------------------------|
|-8-8-8-8-8-----8---8-x-x-x-x-8---x-x-||-8-8-8-8-8-8---8-x-x-x-x-8-x-x--|
|-7-7-7-7-7-----7---7-x-x-x-x-7---x-x-||-7-7-7-7-7-7---7-x-x-x-x-7-x-x--|
|-6-6-6-6-6-----6---6-x-x-x-x-6---x-x-||-6-6-6-6-6-6---6-x-x-x-x-6-x-x--|
|-7-7-7-7-7-----7---7-x-x-x-x-7---x-x-||-7-7-7-7-7-7---7-x-x-x-x-7-x-x--|
|-------------------------------------||--------------------------------|


  S S A chord diagramE MajorE   A chord diagramE MajorE   S S S S A chord diagramE MajorE A chord diagramE MajorE S S   S S A chord diagramE MajorE   A chord diagramE MajorE   S S S S A chord diagramE MajorE   A chord diagramE MajorE S S
|-----------------------------|-------------------------------|
|-----------------------------|-------------------------------|
|-----------------------------|-------------------------------|
|---------5-------------------|---------5---------------------|
|-7-7-5-------7-5-7-7-5-x-x-x-|-7-7-5-------7-5-7-7-5---x-x-x-|
|-----------------------------|-------------------------------|
|
| S S S S S A chord diagramE MajorE   S Q     A chord diagramE MajorE S S   S S S S S A chord diagramE MajorE   S S S S S A chord diagramE MajorE S S
|-----------------------------|-------------------------------|
|-8-8-8-8-8-8---8-------8-x-x-|-8-8-8-8-8-8---8-x-x-x-x-8-x-x-|
|-7-7-7-7-7-7---7-------7-x-x-|-7-7-7-7-7-7---7-x-x-x-x-7-x-x-|
|-6-6-6-6-6-6---6-------6-x-x-|-6-6-6-6-6-6---6-x-x-x-x-6-x-x-|
|-7-7-7-7-7-7---7-------7-x-x-|-7-7-7-7-7-7---7-x-x-x-x-7-x-x-|
|-----------------------------|-------------------------------|


  S S A chord diagramE MajorE   A chord diagramE MajorE   S S S S A chord diagramE MajorE S    +S  S S
|-------------------------------------|
|-------------------------------------|
|-------------------------------------|
|---------5-------------7pb9r(7)-5----|
|-7-7-5-------7-5-7-7-5------------7--|
|-------------------------------------|
|
| S S S S S A chord diagramE MajorE   S Q     A chord diagramE MajorE        S S
|-------------------------------------|
|-8-8-8-8-8-8---8-------8--------x-x--|
|-7-7-7-7-7-7---7-------7--------x-x--|
|-6-6-6-6-6-6---6-------6--------x-x--|
|-7-7-7-7-7-7---7-------7--------x-x--|
|-------------------------------------|


  S S A chord diagramE MajorE   S S S S S S A chord diagramE MajorE   Q       S S A chord diagramE MajorE   S S S S S S A chord diagramE MajorE Q
|-------------------------------|-----------------------------|
|-------------------------------|-----------------------------|
|-------------------------------|-----------------------------|
|---------5---------------5-----|---------5-------------5-----|
|-7-7-5-----7-5---7-7-5---------|-7-7-5-----7-5---7-7-5-------|
|---------------7---------------|---------------7-------------|
|
| S S S S S A chord diagramE MajorE   S S S S S A chord diagramE MajorE S S   S S S S S A chord diagramE MajorE   S Q     A chord diagramE MajorE S S
|-------------------------------|-----------------------------|
|-8-8-8-8-8-8---8-x-x-x-x-8-x-x-|-8-8-8-8-8-8---8-------8-x-x-|
|-7-7-7-7-7-7---7-x-x-x-x-7-x-x-|-7-7-7-7-7-7---7-------7-x-x-|
|-6-6-6-6-6-6---6-x-x-x-x-6-x-x-|-6-6-6-6-6-6---6-------6-x-x-|
|-7-7-7-7-7-7---7-x-x-x-x-7-x-x-|-7-7-7-7-7-7---7-------7-x-x-|
|-------------------------------|-----------------------------|


  S S A chord diagramE MajorE   A chord diagramE MajorE   S S S S A chord diagramE MajorE   Q
|--------------------------------|
|--------------------------------|
|--------------------------------|
|---------5---------------5------|
|-7-7-5-------7-5-7-7-5----------|
|--------------------------------|
|
| S S S S S A chord diagramE MajorE   S S S S S A chord diagramE MajorE S S
|--------------------------------|
|-8-8-8-8-8-8---8-x-x-x-x-8-x-x--|
|-7-7-7-7-7-7---7-x-x-x-x-7-x-x--|
|-6-6-6-6-6-6---6-x-x-x-x-6-x-x--|
|-7-7-7-7-7-7---7-x-x-x-x-7-x-x--|
|--------------------------------|


  S S A chord diagramE MajorE   A chord diagramE MajorE   S S S S A chord diagramE MajorE S S S S
|-------------------------------|
|-------------------------------|
|-------------------------------|
|---------5---------------------|
|-7-7-5-------7-5-7-7-5-5-5-5-7-|
|-------------------------------|
|
| S S S S S A chord diagramE MajorE   S Q     A chord diagramE MajorE   S S
|-------------------------------|
|-8-8-8-8-8-8---8-------8---x-x-|
|-7-7-7-7-7-7---7-------7---x-x-|
|-6-6-6-6-6-6---6-------6---x-x-|
|-7-7-7-7-7-7---7-------7---x-x-|
|-------------------------------|
|
| Gtr III
| W
|-------------------------------|
|-------------------------------|
|-------------------------------|
|-------------------------------|
|-------------------------------|
|-------------------------------|


                  |-----3-----|
  S S A chord diagramE MajorE   A chord diagramE MajorE   S S A chord diagramE MajorE   A chord diagramE MajorE      +A chord diagramE MajorE    Q         S S A chord diagramE MajorE   A chord diagramE MajorE   S S S S A chord diagramE MajorE A chord diagramE MajorE  S S
|------------------------------------------|--------------------------------|
|------------------------------------------|--------------------------------|
|------------------------------------------|--------------------------------|
|---------5-----------7pb9r==(7)-----------|---------5----------------------|
|-7-7-5-------7-5------------------5-------|-7-7-5-------7-5-7-7-5-x--x-x---|
|------------------------------------------|--------------------------------|
|
| S S S S S A chord diagramE MajorE   S S S      S     S A chord diagramE MajorE  S  S   S S S S S A chord diagramE MajorE   S Q     A chord diagramE MajorE  S S
|------------------------------------------|--------------------------------|
|-8-8-8-8-8-8---8-x-x------x-----x-8--x--x-|-8-8-8-8-8-8---8-------8--x-x---|
|-7-7-7-7-7-7---7-x-x------x-----x-7--x--x-|-7-7-7-7-7-7---7-------7--x-x---|
|-6-6-6-6-6-6---6-x-x------x-----x-6--x--x-|-6-6-6-6-6-6---6-------6--x-x---|
|-7-7-7-7-7-7---7-x-x------x-----x-7--x--x-|-7-7-7-7-7-7---7-------7--x-x---|
|------------------------------------------|--------------------------------|
|
| H               Q                A chord diagramE MajorE  S  S   H               Q     A chord diagramE MajorE  A chord diagramE MajorE
|------------------------------------------|--------------------------------|
|------------------------------------------|--------------------------------|
|------------------------------------12-12-|-------------------------12-----|
|------------------------------------12-12-|-------------------------12-----|
|------------------------------------------|--------------------------------|
|------------------------------------------|--------------------------------|


  S S A chord diagramE MajorE   A chord diagramE MajorE   S S S S A chord diagramE MajorE   A chord diagramE MajorE  S  S   S S A chord diagramE MajorE   S    +S  S S S S A chord diagramE MajorE A chord diagramE MajorE  S S
|---------------------------------|-----------------------------------||
|---------------------------------|-----------------------------------||
|---------------------------------|-----------------------------------||
|---------5-----------------------|---------7pb9r(7)-5----------------||
|-7-7-5-------7-5-7-7-5---x--x--x-|-7-7-5--------------7-7-7-5-x--x-x-||
|---------------------------------|-----------------------------------||
|
| S S S S S A chord diagramE MajorE   S S S S S A chord diagramE MajorE  S  S   S S S S S     A chord diagramE MajorE    S Q     A chord diagramE MajorE  S S
|---------------------------------|-----------------------------------||
|-8-8-8-8-8-8---8-x-x-x-x-8--x--x-|-8-8-8-8-8-----8----8-------8--x-x-||
|-7-7-7-7-7-7---7-x-x-x-x-7--x--x-|-7-7-7-7-7-----7----7-------7--x-x-||
|-6-6-6-6-6-6---6-x-x-x-x-6--x--x-|-6-6-6-6-6-----6----6-------6--x-x-||
|-7-7-7-7-7-7---7-x-x-x-x-7--x--x-|-7-7-7-7-7-----7----7-------7--x-x-||
|---------------------------------|-----------------------------------||
|
| H               Q       A chord diagramE MajorE  S  S   H                    Q     A chord diagramE MajorE  A chord diagramE MajorE
|---------------------------------|-----------------------------------||
|---------------------------------|-----------------------------------||
|---------------------------12-12-|------------------------------12---||
|---------------------------12-12-|------------------------------12---||
|---------------------------------|-----------------------------------||
|---------------------------------|-----------------------------------||


 Chorus
  N.C.
  W
|-----------------------------------|
|-----------------------------------|
|-----------------------------------|
|-----------------------------------|
|-----------------------------------|
|-----------------------------------|
|
| W
|-----------------------------------|
|-----------------------------------|
|-----------------------------------|
|-----------------------------------|
|-----------------------------------|
|-----------------------------------|
|
| A chord diagramE MajorE  A chord diagramE MajorE  +S   S S  S  Q   S  S S  S
|-----------------------------------|
|-----------------------------------|
|-------------------14--14-16-------|
|---14-(14)-17---14-------------14--|
|-----------------------------------|
|-----------------------------------|


  Gtr I
                                                                         ~~~~
    H                 S  S S  S S E.   Q      E.       S      +A chord diagramE MajorE  S  S  +Q
|---------------------7--------------|----------------10pb12r(10)---10-(10)---------|
|--------------------------8--5-7-5--|----------------------------------------------|
|------------------------------------|----------------------------------------------|
|------------------------------------|----------------------------------------------|
|------------------------------------|----------------------------------------------|
|------------------------------------|----------------------------------------------|
|
| Gtr III
|  +Q    +S   S S  S  E.      S Q      A chord diagramE MajorE  A chord diagramE MajorE  +S   S S  S       Q         S   S S  S
|------------------------------------|----------------------------------------------|
|------------------------------------|----------------------------------------------|
|--------------------14--------------|------------------------14--------14--16------|
|-(14)--(14)-17---14---------17------|---14-(14)-17---14-------------------------14-|
|------------------------------------|----------------------------------------------|
|------------------------------------|----------------------------------------------|


    Q     E.       S      +S   +S   S  S  +S   E.
|-----------------15b17==(15)r(15)-12-------------||
|-------------------------------------12-(12)-----||
|---------------------------------------------12--||
|-------------------------------------------------||
|-------------------------------------------------||
|-------------------------------------------------||
|
|  +Q    +S   S S  S       E.          S   Q
|-------------------------------------------------||
|-------------------------------------------------||
|-------------------------14----------------------||
|-(14)--(14)-17---14------------------17----------||
|-------------------------------------------------||
|-------------------------------------------------||


 Guitar Solo
  N.C.
  W                 S S S S A chord diagramE MajorE  A chord diagramE MajorE Q   E.      S
|-----------------|----------------------------|
|-----------------|-8-8-7-7-5\-----------------|
|-----------------|-7-7-6-6-4\-----------------|
|-----------------|----------------------------|
|-----------------|--------------------------5s|
|-----------------|----------------------------|
|
| H    Q   S  S A chord diagramE MajorE   H            Q   S   S A chord diagramE MajorE
|---------15-15---|-----------------15--15-----|
|---------15-15---|-----------------15--15-----|
|---------13-13---|-----------------13--13-----|
|-----------------|----------------------------|
|-----------------|----------------------------|
|-----------------|----------------------------|


                               |-3--|            |-3-|
  S S T    +T   T T S S  S S   S  S S S S +S  S  S S S
|-------------------------------------------------------|
|-------------------------------------7-------8-10-8----|
|--------------------------7---9p=7---7-9-(9)--------9--|
|---5-7pb9r(7)--5---5-7s=5----------9-------------------|
|-7---------------7-------------------------------------|
|-------------------------------------------------------|
|
| A chord diagramE MajorE   S         S   A chord diagramE MajorE    A chord diagramE MajorE    +H
|-------------------------------------------------------|
|-------------------------------------------------------|
|-9------------10-------11---(11)-----------------------|
|-7-------------8--------9----(9)-----------------------|
|-------------------------------------------------------|
|-------------------------------------------------------|


               |--3--|                    |--3--|  |------6-------|
   S  S  S  S  S  S  S  S  S      +S   S  S  S  S  S  S  S  S  S  S
|----------10-12-10----10-------------12-12-10----12-10----10-------|
|--8-10s12----------12----13pb15r(13)----------12-------12----12-10-|
|-------------------------------------------------------------------|
|-------------------------------------------------------------------|
|-------------------------------------------------------------------|
|-------------------------------------------------------------------|
|
|  A chord diagramE MajorE     S  S  A chord diagramE MajorE        A chord diagramE MajorE         +H
|-------------------------------------------------------------------|
|-------------------------------------------------------------------|
|-11-------12----------13--------(13)-------------------------------|
|--9-------10----------11--------(11)-------------------------------|
|-------------------------------------------------------------------|
|-------------------------------------------------------------------|


   |------6-------| |-----3-----|   |----3-----|
   S  S S  S S    S A chord diagramE MajorE  A chord diagramE MajorE        A chord diagramE MajorE   S      +S  S S S   +A chord diagramE MajorE  S S
|---------------------------------------------------------------|
|-12-10-8-10-8------8-10b12----10--10pb12r(10)p8---8b9-(8)------|
|-----------------9------------------------------9---------9-7--|
|---------------------------------------------------------------|
|---------------------------------------------------------------|
|---------------------------------------------------------------|
|
|  A chord diagramE MajorE       S    S   A chord diagramE MajorE        A chord diagramE MajorE     +H
|---------------------------------------------------------------|
|---------------------------------------------------------------|
|-13-----------14-----------15----(15)--------------------------|
|-11-----------12-----------13----(13)--------------------------|
|---------------------------------------------------------------|
|---------------------------------------------------------------|


   |-----6------|  |-3--|
   S S S S S    S  S S  S  S  S      +E.  S  +A chord diagramE MajorE   A chord diagramE MajorE
|----------------------------10b12==(10)-10-(10)-10-|
|--------8------8-10-8-10-12------------------------|
|--9-7-9---9----------------------------------------|
|---------------------------------------------------|
|---------------------------------------------------|
|---------------------------------------------------|
|
| Gtr II
|  W
|---------------------------------------------------|
|---------------------------------------------------|
|---------------------------------------------------|
|---------------------------------------------------|
|---------------------------------------------------|
|---------------------------------------------------|
|
| Gtr III
|  A chord diagramE MajorE     S    S    A chord diagramE MajorE       A chord diagramE MajorE         +H
|---------------------------------------------------|
|---------------------------------------------------|
|-15---------16-----------17--------(17)------------|
|-13---------14-----------15--------(15)------------|
|---------------------------------------------------|
|---------------------------------------------------|


                              2nd Verse
                               A chord diagramE7E7+9
   +S   E.  +H       Q         S S A chord diagramE MajorE   S S A chord diagramE MajorE   A chord diagramE MajorE   A chord diagramE MajorE   S S  A chord diagramE MajorE
|-(10)-10--(10)r------------||-----------------------------------|
|---------------------------||-----------------------------------|
|---------------------------||-----------------------------------|
|---------------------------||-----------------------------------|
|---------------------------||-7-7-5---7p5-7---7---5---7-7--5----|
|---------------------------||-----------------------------------|
|
|   W                          S S S S S A chord diagramE MajorE   S S S S S A chord diagramE MajorE    S S
|---------------------------||-----------------------------------|
|---------------------------||-8-8-8-8-8-8---8-x-x-x-x-8----x-x--|
|---------------------------||-7-7-7-7-7-7---7-x-x-x-x-7----x-x--|
|---------------------------||-6-6-6-6-6-6---6-x-x-x-x-6----x-x--|
|---------------------------||-7-7-7-7-7-7---7-x-x-x-x-7----x-x--|
|---------------------------||-----------------------------------|
|
|  +H.               S  S A chord diagramE MajorE    H               Q       A chord diagramE MajorE    A chord diagramE MajorE
|-------------------15-15---||-----------------------------15----|
|-------------------15-15---||-----------------------------15----|
|-(17)--------------13-13---||-----------------------------13----|
|-(15)----------------------||-----------------------------------|
|---------------------------||-----------------------------------|
|---------------------------||-----------------------------------|


  S S A chord diagramE MajorE   S S A chord diagramE MajorE   A chord diagramE MajorE A chord diagramE MajorE S S  A chord diagramE MajorE      S S A chord diagramE MajorE   A chord diagramE MajorE   A chord diagramE MajorE   A chord diagramE MajorE      A chord diagramE MajorE   +S  E.
|-------------------------------|---------------------------------------|
|-------------------------------|---------------------------------------|
|-------------------------------|---------------------------------------|
|-------------------------------|-----------------4b6====4---(4)-4r-----|
|-7-7-5---7p5-7---7-5-7-7--5----|-7-7-5---7---5-------------------------|
|-------------------------------|---------------------------------------|
|
| S S S S S A chord diagramE MajorE   S Q   A chord diagramE MajorE    S  S   S S S S S A chord diagramE MajorE   S S    S S S  A chord diagramE MajorE     S S
|-------------------------------|---------------------------------------|
|-8-8-8-8-8-8---8-----8----x--x-|-8-8-8-8-8-8---8-x----x-x-x--8-----x-x-|
|-7-7-7-7-7-7---7-----7----x--x-|-7-7-7-7-7-7---7-x----x-x-x--7-----x-x-|
|-6-6-6-6-6-6---6-----6----x--x-|-6-6-6-6-6-6---6-x----x-x-x--6-----x-x-|
|-7-7-7-7-7-7---7-----7----x--x-|-7-7-7-7-7-7---7-x----x-x-x--7-----x-x-|
|-------------------------------|---------------------------------------|
|
| H               Q   A chord diagramE MajorE    S  S   W
|-------------------------15-15-|---------------------------------------|
|-------------------------15-15-|---------------------------------------|
|-------------------------13-13-|---------------------------------------|
|-------------------------------|---------------------------------------|
|-------------------------------|---------------------------------------|
|-------------------------------|---------------------------------------|


  S S S S S   S S S S S S S S S  S  S
|---------------------------------------|
|---------------------------------------|
|---------------------------------------|
|-5-5-x-x-7b8-7-5---5-x-4-x-------------|
|-----------------7---------7-x--5--7---|
|---------------------------------------|
|
| S S S S S   A chord diagramE MajorE   S Q       A chord diagramE MajorE    S  S
|---------------------------------------|
|-8-8-8-8-8---8---8---------8----x--x---|
|-7-7-7-7-7---7---7---------7----x--x---|
|-6-6-6-6-6---6---6---------6----x--x---|
|-7-7-7-7-7---7---7---------7----x--x---|
|---------------------------------------|
|
| H                 Q       A chord diagramE MajorE    S  S
|-------------------------------15-15---|
|-------------------------------15-15---|
|-------------------------------13-13---|
|---------------------------------------|
|---------------------------------------|
|---------------------------------------|


  S S A chord diagramE MajorE   A chord diagramE MajorE   S S S S A chord diagramE MajorE   A chord diagramE MajorE S S   S S S S S   S S S S S S S S S S S
|-------------------------------|-----------------------------------|
|-------------------------------|-----------------------------------|
|-------------------------------|-----------------------------------|
|---------5---------------------|-5-5-x-x-7b8-7-5---5-x-4-x---------|
|-7-7-5-------7-5-7-7-5---x-x-x-|-----------------7---------7-x-5-7-|
|-------------------------------|-----------------------------------|
|
| S S S S S A chord diagramE MajorE   S S S S S A chord diagramE MajorE S S   S S S S S   A chord diagramE MajorE   S Q       A chord diagramE MajorE   S S
|-------------------------------|-----------------------------------|
|-8-8-8-8-8-8---8-x-x-x-x-8-x-x-|-8-8-8-8-8---8---8---------8---x-x-|
|-7-7-7-7-7-7---7-x-x-x-x-7-x-x-|-7-7-7-7-7---7---7---------7---x-x-|
|-6-6-6-6-6-6---6-x-x-x-x-6-x-x-|-6-6-6-6-6---6---6---------6---x-x-|
|-7-7-7-7-7-7---7-x-x-x-x-7-x-x-|-7-7-7-7-7---7---7---------7---x-x-|
|-------------------------------|-----------------------------------|


  S S S S S   S S S S S S S S S S S
|------------------------------------|
|------------------------------------|
|------------------------------------|
|-5-5-x-x-7b8-7-5---5-x-4-x----------|
|-----------------7---------7-x-5-7--|
|------------------------------------|
|
| S S S S S   A chord diagramE MajorE   S S S S S A chord diagramE MajorE   S S
|------------------------------------|
|-8-8-8-8-8---8---8-x-x-x-x-8---x-x--|
|-7-7-7-7-7---7---7-x-x-x-x-7---x-x--|
|-6-6-6-6-6---6---6-x-x-x-x-6---x-x--|
|-7-7-7-7-7---7---7-x-x-x-x-7---x-x--|
|------------------------------------|


                                3rd Verse
                                 A chord diagramE7E7+9
  S S A chord diagramE MajorE   A chord diagramE MajorE   S S S S A chord diagramE MajorE A chord diagramE MajorE S S     S  S A chord diagramE MajorE   A chord diagramE MajorE   S S S S A chord diagramE MajorE   A chord diagramE MajorE S S
|-----------------------------||---------------------------------|
|-----------------------------||---------------------------------|
|-----------------------------||---------------------------------|
|---------5-------------5-----||-----------5---------------------|
|-7-7-5-------7-5-7-7-5---7-5-||--7--7-5-------7-5-7-7-5---x-x-x-|
|-----------------------------||---------------------------------|
|
| S S S S S A chord diagramE MajorE   S Q     A chord diagramE MajorE S S     S  S S S S A chord diagramE MajorE   S S S S S A chord diagramE MajorE S S
|-----------------------------||---------------------------------|
|-8-8-8-8-8-8---8-------8-x-x-||--8--8-8-8-8-8---8-x-x-x-x-8-x-x-|
|-7-7-7-7-7-7---7-------7-x-x-||--7--7-7-7-7-7---7-x-x-x-x-7-x-x-|
|-6-6-6-6-6-6---6-------6-x-x-||--6--6-6-6-6-6---6-x-x-x-x-6-x-x-|
|-7-7-7-7-7-7---7-------7-x-x-||--7--7-7-7-7-7---7-x-x-x-x-7-x-x-|
|-----------------------------||---------------------------------|
|
| Gtr III
| W                               Q        Q       H
|-----------------------------||-19\-----------------------------|
|-----------------------------||-17\-----------------------------|
|-----------------------------||---------------------------------|
|-----------------------------||---------------------------------|
|-----------------------------||---------------------------------|
|-----------------------------||---------------------------------|


   S  S A chord diagramE MajorE   A chord diagramE MajorE   S S S   S S S S S S S
|-------------------------------------|
|-------------------------------------|
|-------------------------------------|
|-----------5---7-5-7b8-7-5---7-6-5---|
|--7--7-5-------------------7-------7-|
|-------------------------------------|
|
|  S  S S S S A chord diagramE MajorE   S Q         A chord diagramE MajorE   S S
|-------------------------------------|
|--8--8-8-8-8-8---8-----------8---x-x-|
|--7--7-7-7-7-7---7-----------7---x-x-|
|--6--6-6-6-6-6---6-----------6---x-x-|
|--7--7-7-7-7-7---7-----------7---x-x-|
|-------------------------------------|
|
|  S  S A chord diagramE MajorE   Q       H
|-19-19-------------------------------|
|-17-17-------------------------------|
|-------------------------------------|
|-------------------------------------|
|-------------------------------------|
|-------------------------------------|


   S  S A chord diagramE MajorE   A chord diagramE MajorE   S S S S A chord diagramE MajorE   A chord diagramE MajorE S S    S  S A chord diagramE MajorE   A chord diagramE MajorE   S S S S A chord diagramE MajorE A chord diagramE MajorE S S
|---------------------------------|-------------------------------|
|---------------------------------|-------------------------------|
|---------------------------------|-------------------------------|
|-----------5---------------------|-----------5-------------5-----|
|--7--7-5-------7-5-7-7-5---x-x-x-|--7--7-5-------7-5-7-7-5---7-5-|
|---------------------------------|-------------------------------|
|
|  S  S S S S A chord diagramE MajorE   S S S S S A chord diagramE MajorE S S    S  S S S S A chord diagramE MajorE   S Q     A chord diagramE MajorE S S
|---------------------------------|-------------------------------|
|--8--8-8-8-8-8---8-x-x-x-x-8-x-x-|--8--8-8-8-8-8---8-------8-x-x-|
|--7--7-7-7-7-7---7-x-x-x-x-7-x-x-|--7--7-7-7-7-7---7-------7-x-x-|
|--6--6-6-6-6-6---6-x-x-x-x-6-x-x-|--6--6-6-6-6-6---6-------6-x-x-|
|--7--7-7-7-7-7---7-x-x-x-x-7-x-x-|--7--7-7-7-7-7---7-------7-x-x-|
|---------------------------------|-------------------------------|
|
|  Q        Q       H                S  S A chord diagramE MajorE   Q       H
|-19\-----------------------------|-19-19-------------------------|
|-17\-----------------------------|-17-17-------------------------|
|---------------------------------|-------------------------------|
|---------------------------------|-------------------------------|
|---------------------------------|-------------------------------|
|---------------------------------|-------------------------------|


   S  S A chord diagramE MajorE   A chord diagramE MajorE   S S S S A chord diagramE MajorE   A chord diagramE MajorE S S
|----------------------------------|
|----------------------------------|
|----------------------------------|
|-----------5---------------5------|
|--7--7-5-------7-5-7-7-5-----7-5--|
|----------------------------------|
|
|  S  S S S S A chord diagramE MajorE   S S S S S A chord diagramE MajorE S S
|----------------------------------|
|--8--8-8-8-8-8---8-x-x-x-x-8-x-x--|
|--7--7-7-7-7-7---7-x-x-x-x-7-x-x--|
|--6--6-6-6-6-6---6-x-x-x-x-6-x-x--|
|--7--7-7-7-7-7---7-x-x-x-x-7-x-x--|
|----------------------------------|
|
|  Q        Q       H
|-19\------------------------------|
|-17\------------------------------|
|----------------------------------|
|----------------------------------|
|----------------------------------|
|----------------------------------|


   S  S A chord diagramE MajorE   A chord diagramE MajorE   S S S S A chord diagramE MajorE A chord diagramE MajorE S S    S  S A chord diagramE MajorE   A chord diagramE MajorE   S S S S A chord diagramE MajorE   A chord diagramE MajorE S S
|-------------------------------|---------------------------------|
|-------------------------------|---------------------------------|
|-------------------------------|---------------------------------|
|-----------5-------------------|-----------5---------------------|
|--7--7-5-------7-5-7-7-5-x-x-x-|--7--7-5-------7-5-7-7-5---x-x-x-|
|-------------------------------|---------------------------------|
|
|  S  S S S S A chord diagramE MajorE   S Q     A chord diagramE MajorE S S    S  S S S S A chord diagramE MajorE   S S S S S A chord diagramE MajorE S S
|-------------------------------|---------------------------------|
|--8--8-8-8-8-8---8-------8-x-x-|--8--8-8-8-8-8---8-x-x-x-x-8-x-x-|
|--7--7-7-7-7-7---7-------7-x-x-|--7--7-7-7-7-7---7-x-x-x-x-7-x-x-|
|--6--6-6-6-6-6---6-------6-x-x-|--6--6-6-6-6-6---6-x-x-x-x-6-x-x-|
|--7--7-7-7-7-7---7-------7-x-x-|--7--7-7-7-7-7---7-x-x-x-x-7-x-x-|
|-------------------------------|---------------------------------|
|
|  S  S A chord diagramE MajorE   Q       H              Q        Q       H
|-19-19-------------------------|-19\-----------------------------|
|-17-17-------------------------|-17\-----------------------------|
|-------------------------------|---------------------------------|
|-------------------------------|---------------------------------|
|-------------------------------|---------------------------------|
|-------------------------------|---------------------------------|


   S  S S S S S S S S S S S S S S S
|-----------------------------------||
|-----------------------------------||
|---------7-9-7---------------------||
|--5--7-9-------9-7-5---5-----------||
|---------------------7---7-5-------||
|-----------------------------7-5-3-||
|
|  S  S S S S A chord diagramE MajorE   S Q       A chord diagramE MajorE   S S
|-----------------------------------||
|--8--8-8-8-8-8---8---------8---x-x-||
|--7--7-7-7-7-7---7---------7---x-x-||
|--6--6-6-6-6-6---6---------6---x-x-||
|--7--7-7-7-7-7---7---------7---x-x-||
|-----------------------------------||
|
|  S  S A chord diagramE MajorE   Q       H
|-19-19-----------------------------||
|-17-17-----------------------------||
|-----------------------------------||
|-----------------------------------||
|-----------------------------------||
|-----------------------------------||


 4th Verse
  A chord diagramE7E7+9
   S  S A chord diagramE MajorE   A chord diagramE MajorE   S S S S A chord diagramE MajorE   S S S S    S  S A chord diagramE MajorE   A chord diagramE MajorE   S S S S A chord diagramE MajorE S S S S
|-----------------------------------|---------------------------------|
|-----------------------------------|---------------------------------|
|-----------------------------------|---------------------------------|
|-----------5-----------------------|-----------5---------------------|
|--7--7-5-------7-5-7-7-5---7-5-----|--7--7-5-------7-5-7-7-5-7-5-----|
|-------------------------------7-5-|-----------------------------7-5-|
|
|  S  S S S S A chord diagramE MajorE   S S S S S A chord diagramE MajorE   S S    S  S S S S A chord diagramE MajorE   S Q     A chord diagramE MajorE   S S
|-----------------------------------|---------------------------------|
|--8--8-8-8-8-8---8-x-x-x-x-8---x-x-|--8--8-8-8-8-8---8-------8---x-x-|
|--7--7-7-7-7-7---7-x-x-x-x-7---x-x-|--7--7-7-7-7-7---7-------7---x-x-|
|--6--6-6-6-6-6---6-x-x-x-x-6---x-x-|--6--6-6-6-6-6---6-------6---x-x-|
|--7--7-7-7-7-7---7-x-x-x-x-7---x-x-|--7--7-7-7-7-7---7-------7---x-x-|
|-----------------------------------|---------------------------------|
|
|  Q        Q       H                  S  S A chord diagramE MajorE   Q       H
|-19\-------------------------------|-19-19---------------------------|
|-17\-------------------------------|-17-17---------------------------|
|-----------------------------------|---------------------------------|
|-----------------------------------|---------------------------------|
|-----------------------------------|---------------------------------|
|-----------------------------------|---------------------------------|


   S  S A chord diagramE MajorE   A chord diagramE MajorE   S S S S A chord diagramE MajorE   S S S S
|------------------------------------|
|------------------------------------|
|------------------------------------|
|-----------5------------------------|
|--7--7-5-------7-5-7-7-5---7-5------|
|-------------------------------7-5--|
|
|  S  S S S S A chord diagramE MajorE   S S S S S A chord diagramE MajorE   S S
|------------------------------------|
|--8--8-8-8-8-8---8-x-x-x-x-8---x-x--|
|--7--7-7-7-7-7---7-x-x-x-x-7---x-x--|
|--6--6-6-6-6-6---6-x-x-x-x-6---x-x--|
|--7--7-7-7-7-7---7-x-x-x-x-7---x-x--|
|------------------------------------|
|
|  Q        Q       H
|-19\--------------------------------|
|-17\--------------------------------|
|------------------------------------|
|------------------------------------|
|------------------------------------|
|------------------------------------|


   S  S A chord diagramE MajorE   A chord diagramE MajorE   S S S S A chord diagramE MajorE S S S S
|---------------------------------|
|---------------------------------|
|---------------------------------|
|-----------5---------------------|
|--7--7-5-------7-5-7-7-5-7-5-----|
|-----------------------------7-5-|
|
|  S  S S S S A chord diagramE MajorE   S Q     A chord diagramE MajorE   S S
|---------------------------------|
|--8--8-8-8-8-8---8-------8---x-x-|
|--7--7-7-7-7-7---7-------7---x-x-|
|--6--6-6-6-6-6---6-------6---x-x-|
|--7--7-7-7-7-7---7-------7---x-x-|
|---------------------------------|
|
|  S  S A chord diagramE MajorE   Q       H
|-19-19---------------------------|
|-17-17---------------------------|
|---------------------------------|
|---------------------------------|
|---------------------------------|
|---------------------------------|


   S  S A chord diagramE MajorE   A chord diagramE MajorE   A chord diagramE MajorE   S S A chord diagramE MajorE   A chord diagramE MajorE S S    S  S A chord diagramE MajorE   A chord diagramE MajorE   S S S S A chord diagramE MajorE A chord diagramE MajorE S S
|---------------------------------|--------------------------------|
|---------------------------------|--------------------------------|
|---------------------------------|--------------------------------|
|-----------7---5-----------------|-----------5--------------------|
|--7--7-5-----------7-7-5---x-x-x-|--7--7-5-------7-5-7-7-5-x-x-x--|
|---------------------------------|--------------------------------|
|
|  S  S S S S A chord diagramE MajorE   S S S S S A chord diagramE MajorE S S    S  S S S S A chord diagramE MajorE   S Q     A chord diagramE MajorE S S
|---------------------------------|--------------------------------|
|--8--8-8-8-8-8---8-x-x-x-x-8-x-x-|--8--8-8-8-8-8---8-------8-x-x--|
|--7--7-7-7-7-7---7-x-x-x-x-7-x-x-|--7--7-7-7-7-7---7-------7-x-x--|
|--6--6-6-6-6-6---6-x-x-x-x-6-x-x-|--6--6-6-6-6-6---6-------6-x-x--|
|--7--7-7-7-7-7---7-x-x-x-x-7-x-x-|--7--7-7-7-7-7---7-------7-x-x--|
|---------------------------------|--------------------------------|
|
|  Q        Q       H                S  S A chord diagramE MajorE   Q       H
|-19\-----------------------------|-19-19--------------------------|
|-17\-----------------------------|-17-17--------------------------|
|---------------------------------|--------------------------------|
|---------------------------------|--------------------------------|
|---------------------------------|--------------------------------|
|---------------------------------|--------------------------------|


   S  S A chord diagramE MajorE   A chord diagramE MajorE   S S S S A chord diagramE MajorE   S    +S  S S    S  S A chord diagramE MajorE   A chord diagramE MajorE   S S S S S S S S A chord diagramE MajorE
|----------------------------------------|-----------------------------------|
|----------------------------------------|-----------------------------------|
|----------------------------------------|-----------------------------------|
|-----------5---------------7pb8r(7)-5---|---------------------------8-7-5---|
|--7--7-5-------7-5-7-7-5--------------7-|--7--7-5---7---5-------5-7---------|
|----------------------------------------|-----------------7-5-7-------------|
|
|  S  S S S S A chord diagramE MajorE   S S S S S A chord diagramE MajorE        S S    S  S S S S A chord diagramE MajorE   S Q       A chord diagramE MajorE   S S
|----------------------------------------|-----------------------------------|
|--8--8-8-8-8-8---8-x-x-x-x-8--------x-x-|--8--8-8-8-8-8---8---------8---x-x-|
|--7--7-7-7-7-7---7-x-x-x-x-7--------x-x-|--7--7-7-7-7-7---7---------7---x-x-|
|--6--6-6-6-6-6---6-x-x-x-x-6--------x-x-|--6--6-6-6-6-6---6---------6---x-x-|
|--7--7-7-7-7-7---7-x-x-x-x-7--------x-x-|--7--7-7-7-7-7---7---------7---x-x-|
|----------------------------------------|-----------------------------------|
|
|  Q        Q       H                       S  S A chord diagramE MajorE   Q       H
|-19\------------------------------------|-19-19-----------------------------|
|-17\------------------------------------|-17-17-----------------------------|
|----------------------------------------|-----------------------------------|
|----------------------------------------|-----------------------------------|
|----------------------------------------|-----------------------------------|
|----------------------------------------|-----------------------------------|


   Out-Chorus
    N.C.
    E.    S   S   S S  S  S S A chord diagramE MajorE  S  S S  S     W
||-----------------------------------------|------------------------------|
||o----------------------------------------|------------------------------|
||-----------------------------------------|------------------------------|
||------------5---7----7--7p5----5---------|------------------------------|
||o-------7-------------------7-----7p5----|------------------------------|
||---------------------------------------7-|------------------------------|
|
|   W                                          W
||-----------------------------------------|------------------------------|
||o----------------------------------------|------------------------------|
||-----------------------------------------|------------------------------|
||-----------------------------------------|------------------------------|
||o----------------------------------------|------------------------------|
||-----------------------------------------|------------------------------|
|
|   A chord diagramE MajorE   A chord diagramE MajorE    +S   S S  S  Q      S  S S  S    +Q    +S   S S  S  E.  S Q
||-----------------------------------------|------------------------------|
||o----------------------------------------|------------------------------|
||-----------------------14-----14-16------|--------------------14--------|
||-----14---(14)-17---14----------------14-|-(14)--(14)-17---14-----17----|
||o----------------------------------------|------------------------------|
||-----------------------------------------|------------------------------|


                                    1.,2.
  Gtr III
  A chord diagramE MajorE  A chord diagramE MajorE  +S   S S  S  Q   S  S S  S    +Q    +S   S S  S  E.  S A chord diagramE MajorE  A chord diagramE MajorE  3x
|----------------------------------|---------------------------------||
|----------------------------------|--------------------------------o||
|-------------------14--14-16------|--------------------14-----------||
|---14-(14)-17---14-------------14-|-(14)--(14)-17---14-----17---14--||
|----------------------------------|--------------------------------o||
|----------------------------------|---------------------------------||


 3.
                                 N.C.
   +Q    +S   S S  S  E.  S Q    Wx6
|------------------------------|--------*|
|------------------------------|--------*|
|--------------------14--------|--------*|
|-(14)--(14)-17---14-----17----|--------*|
|------------------------------|--------*|
|------------------------------|--------*|


Duration 🏷Legend
---------------
W - whole; H - half; Q - quarter; A chord diagramE MajorE - 8th; S - 16th; T - 32nd; X - 64th; a - acciaccatura
+ - note tied to previous; . - note dotted; .. - note double dotted
Uncapitalized letters represent notes that are staccato (1/2 duration)
Irregular groupings are notated above the duration line
Duration letters will always appear directly above the note/fret number it represents the
duration for.  Duration letters with no fret number below them represent rests.  Multi-
bar rests are notated in the form Wxn, where n is the number of bars to rest for.  Low
melody durations appear below the staff

Tablature 🏷Legend
----------------
 h   - hammer-on
 p   - pull-off
 b   - bend
 pb  - pre-bend
 r   - bend release (if no number after the r, then release immediately)
 /\  - slide into or out of (from/to "nowhere")
 s   - legato slide
 S   - shift slide
  - natural harmonic
[n]  - artificial harmonic
n(n) - tapped harmonic
 ~   - vibrato
 tr  - trill
 T   - tap
 TP  - trem. picking
 PM  - palm muting
\n/  - tremolo bar dip; n = amount to dip
 \n  - tremolo bar down
 n/  - tremolo bar up
/n\  - tremolo bar inverted dip
 =   - hold bend; also acts as connecting device for hammers/pulls
 <>  - volume swell (louder/softer)
 x   - on rhythm slash represents muted slash
 o   - on rhythm slash represents single note slash

Misc 🏷Legend
-----------
 |  - bar
||  - double bar
||o - repeat start
o|| - repeat end
*|  - double bar (ending)
 :  - bar (freetime)
 $  - Segno
 &  - Coda
Tempo markers -  = BPM(8/16=s8/s16), where s8 = swing 8ths, s16 = swing 16ths

Almost there ...

Sign in to get your own page with links to favourite songs and more. You are just one click away...

Login with Facebook Login with Google