Guitar Tabs Explorer
Iron Maiden bass tabs for Age of innocence

Age Of Innocence bass tab


Be the first to rate

Age Of Innocence bass tab by Iron Maiden

Bass tabs

Print

This is the bass tab for Age of Innocence.

> = slide to
~ = let ring
| = pause
h = hammer on

Intro 1
G |----9-9-9------5---5----5-------6----6----6--------5---5---5-----|
D |-------------5---5---5---5---6----6----6----6---5---5---5---5----|
A |-7~------7>3---------------4------------------3------------------|
E |-----------------------------------------------------------------|

Intro 2
G |-------9----9----9--------5---5---5---------6----6----6------5---5---5-----|
D |----9----9----9----9---5---5---5---5----6----6----6----6---5---5---5---5---|
A |-7-------------------3----------------4------------------3-----------------| x6
E |---------------------------------------------------------------------------|

Build up
G |-------9----9----9--------5---5---5---------6----6----6----------------------|
D |----9----9----9----9---5---5---5---5----6----6----6----6---------------------|
A |-7-------------------3----------------4-------------------3-3-3-3-3-3-3-3----|
E |-----------------------------------------------------------------------------|

Verse 1
G |-------------------------------------------|
D |-------------------------------------------|
A |-------------------------------------------| x5
E |-0-0-0-8-7-0-0-0-8-7-0-0-0-9-8-0-0-0-8-7---|

Verse 2
G |-------------------------------|
D |-------------------------------|
A |-8-8-8-8-8-8-7-7-7-7-7-7-------|
E |-------------------------------|

Verse 1 x3

Verse 3
G |---------------------------------------------------|
D |---------------------------------------------------|
A |-8-8-8-8-8-8-7-7-7-7-7-7-10-10-10-10-10-10-10-10---|
E |---------------------------------------------------|

Chorus 1
G |----------------------------------------|
D |----------------------------------------|
A |-9-9-9-10-10-10-10-10-5-5-5-0-0-0-0-0---| x7
E |----------------------------------------|

Chorus 2
G |-------------------------------------------|
D |-------------------------------------------|
A |-10-10-10-10-10-10-10-10-9-9-9-9-9-9-9-9---|
E |-------------------------------------------|

Verse 1 x4

Verse 2

Verse 1 x3

Verse 3

Chorus 1 x7

Chorus 2

Solo 1
G |------------------------------------------|
D |------------------------------------------|
A |------------------------------------------| x2
E |-0-0-0-8-7-0-0-0-8-7-0-0-0-9-8-0-0-0-8-7--|

Solo 2
G |--------------------------------------|
D |--------------------------------------|
A |--------------------------------------|
E |-8-8-8-8-8-8-8-8-9-9-9-9-9-9-9-9------|

Solo 3
G |--------------------------------------------------------------------------|
D |--------------------------------------------------------------------------|
A |--------------------------------------------------------------------------| x3
E |-0-0-0-8-7-0-0-0-8-7-0-0-0-9-8-0-0-0-8-7-8-8-8-8-8-8-8-8-9-9-9-9-9-9-9-9--|

Solo 4
G |--------------------------------------------------|
D |--------------------------------------------------|
A |--------------------------------------------------| x4
E |-3-3-3-3-3-3-8-8-8-8-8-8-8-8-8-8-8-8-7-7-7-7-7-7--|

Bridge 1
G |------------------------------------------|
D |------------------------------------------|
A |-7-9-9-9-9-7-9-9-9-9-7-9-9-9-9-7-9-9-9-9--|
E |------------------------------------------|

Bridge 1 (continued)
G |------------------------------------------|
D |------------------------------------------|
A |-5-7-7-7-7-5-7-7-7-7-7-9-9-9-9-7-9-9-9-9--|
E |------------------------------------------|

Bridge 2
G |--------------------------------------------|
D |--------------------------------------------|
A |---------5~----------------5~---------------|
E |-5-5~-3-----2-2~-2-3-5~-3-----2-2~-3-2-2-3--|

Verse 1 x3

Verse 3

Chorus 1 x7

Chorus 2

Verse 1 x2

Intro 2 x3

Outro
G |-------9----9------------|
D |----9----9----9----------|
A |-7-----------------------|
E |-------------------------|


You play in the given order.

Enjoy!

Comment this song and these bass tabs

Do you have corrections, comments on the bass tabs, thoughts about the song or a message to the author? Write them below.