Log in

One click and you are in

Login with Facebook Login with Google

Why sign up and log in

Guitar Tabs Explorer
Mr Bungle tabs for Carry stress in the jaw

Guitar tabs

Carry stress in the jaw
by Mr. Bungle
transcription by Fea (http://membres.tripod.fr/Fea)


dropped D tuning (DADGBE)

4/4

4:48
|---------------------------------|---------------------------------|
|-4---4---4---4---4---4---4---3---|-3---3---3---3---3---3---3-------|
|-5---5---5---5---5---5---5---5---|-5---5---5---5---5---5---5-------|
|---------------------------------|---------------------------------|
|---------------------------------|---------------------------------|
|---------------------------------|-----------------------------0---|

                                                                 3X
|---------------------------------|---------------------------------|
|---------------------------------|---------------------------------|
|.--------------------------------|--------------------------------.|
|.----------------------------0-0-|-0-/-1-----/-5-----------0------.|
|---------------------------------|---------1-/-4-------2---0-------|
|-----0---2---2---3---3-----------|-----------------------------0---|

|---------------------------------|---------------------------------|
|---------------------------------|-4---4---4---4---4---3---3-------|
|-----------------------------5---|-5---5---5---5---5---5---5-------|
|---------------------------------|---------------------------------|
|---------------------------------|---------------------------------|
|-----0---2---2---3---3-----------|-----------------------------0---|

                                                   3X
  1 e & e 2 e & e 3 e & e 4 e & e     1 e & e 2 e & e
|---------------------------------| |-----------------| |
|---------------------------------| |-----------------| |
|.--------------------------------|2|----------------.|4|
|.--------------------------------|4|-----2---2------.|4|
|-----------------------------3/4-| |-4-----------4---| |
|-----0---2---2---3---3-----------| |-----------------| |

|---------------------------------|---------------------------------|
|---------------------------------|-4---4---4---4---4---3---3-------|
|-----------------------------5---|-5---5---5---5---5---5---5-------|
|---------------------------------|---------------------------------|
|---------------------------------|---------------------------------|
|-----0---2---2---3---3-----------|-----------------------------0---|

|---------------------------------|---------------------------------|
|---------------------------------|---------------------------------|
|---------------------------------|---------------------------------|
|-----------------------------0-0-|-0-/-1-----/-5-----------0-------|
|---------------------------------|---------1-/-4-------2---0-------|
|-----0---2---2---3---3-----------|-----------------------------0---|

|---------------------------------|---------------------------------| |
|---------------------------------|---------------------------------| |
|---------------------------------|---------------------------------|3|
|---------------------------------|---------------------------------|4|
|---------------------------------|---------------------------------| |
|-----0---2---2---3---3-------x-/-|(10)--------(10)-\-----------5---| |

  1 e & e 2 e & e 3 e & e     1 e & e 2 e & e 3 e & e 4 e & e
|-------------------------| |---------------------------------|
|-------------------------| |---------------------------------|
|-------------------------|4|---------------------------------|
|---------x-/(10)---------|4|---------------------------------|
|-------------------------| |-5-------4-------3---------------|
|-------------------------| |-5-------4-------3-----------0---|

5:30
|---------------------------------|---------------------------------|
|---------------------------------|---------------------------------|
|---------------------------------|---------------------------------|
|---------------------------------|---------------------------------|
|---------------------------------|---------------------------------|
|-5---3---0---5-3---0---6---3-0---|-6---3---0---5-3---0---5---3-0---|

|---------------------------------|---------------------------------|
|---------------------------------|---------------------------------|
|---------------------------------|---------------------------------|
|---------------------------------|---------------------------------|
|---------------------------------|---------------------------------|
|-6---3---0---6-3---0---5---3-0---|-5---3---0---6-3---0---6---3-0---|

|---------------------------------|---------------------------------|
|---------------------------------|---------------------------------|
|---------------------------------|---------------------------------|
|---------------------------------|---------------------------------|
|---------------------------------|---------------------------------|
|-5---3---0---5-3---0---6---3-0---|-6---3---0---5-3---0---5---3-0---|

5:41
|---------------------------------|---------------------------------| |
|---------------------------------|---------------------------------| |
|---------------------------------|---------------------------------|5|
|---------------------------------|---------------------------------|4|
|---------5---------5---------4---|---------4---------3---------2---| |
|-0---3-----0---3-------0---3-----|-0---3-----0---3-------0---3-----| |

  1 e & e 2 e & e 3 e & e 4 e & e 5 e & e
|-----------------------------------------| |
|-----------------------------------------| |
|-----------------------------------------|4|
|-----------------------------------------|4|
|---------2---------1-----0-------0h1-----| |
|-0---3-----0---3-------0-------------3-2-| |

|---------------------------------|---------------------------------|
|---------------------------------|---------------------------------|
|---------------------------------|---------------------------------|
|---------------------------------|---------------------------------|
|---------5---------5---------4---|---------4---------3---------2---|
|-0---3-----0---3-------0---3-----|-0---3-----0---3-------0---3-----|

  1 e & e 2 e & e 3 e & e 4 e & e     1 e & e 2 e & e 3 e & e
|---------------------------------| |-------------------------| |
|---------------------------------| |-------------------------| |
|---------------------------------|3|-------------------------|4|
|---------------------------------|4|-------------------------|4|
|---------2---------1-----0-------| |-0h1-------------x-------| |
|-0---3-----0---3-------0---------| |-----3-2-0-------x---3---| |

5:54
|---------------------------------|---------------------------------|
|---------------------------------|---------------------------------|
|---------------------------------|---------------------------------|
|---------------------------------|---------------------------------|
|---------------------------------|---------------------------------|
|-5-------x---8-----------5---3---|-0-------x---3-----------0---3---|

|---------------------------------|---------------------------------|
|---------------------------------|---------------------------------|
|---------------------------------|---------------------------------|
|---------------------------------|---------------------------------|
|---------------------------------|---------------------------------|
|-5-------x---8-------8---5---3---|-0-------0---3-----------0---3---|

|---------------------------------|---------------------------------|
|---------------------------------|---------------------------------|
|---------------------------------|---------------------------------|
|---------------------------------|---------------------------------|
|---------------------------------|---------------------------------|
|-5-------x---8-----------5---3---|-0-------x---3-------3---0---3---|

|---------------------------------|---------------------------------|
|-3-------3-------3-/-5---5-------|---------------------------------|
|-3-------3-------3-/-5---5-------|---------------------------------|
|-3-------3-------3-/-5---5-------|-7-\-----------------------------|
|---------------------------------|-7-\-----------------------------|
|---------------------------------|-7-\-----------------------------|

6:10
|---------------------------------|---------------------------------|
|---------------------------------|---------------------------------|
|---------------------------------|---------------------------------|
|---------------------------------|---------------------------------|
|---------------------------------|---------------------------------|
|-5-------x---5-------0---3---4---|-5-------x---5-------0---5---3---|

|---------------------------------|---------------------------------|
|---------------------------------|---------------------------------|
|---------------------------------|---------------------------------|
|---------------------------------|---------------------------------|
|---------------------------------|---------------------------------|
|-2-------x---2-------0---7---5---|-2-------x---2-------2---2---0---|

|---------------------------------|---------------------------------|
|---------------------------------|---------------------------------|
|---------------------------------|---------------------------------|
|-5-----------------------3-------|-2-------------------2-2-2---2---|
|---------------------------------|---------------------------------|
|---------------------------------|---------------------------------|

|---------------------------------|-------------0-------------------|
|---------------------------------|-------------1----w/ w.b.--------|
|---------------------------------|-------------2-------------------|
|-3---2---------------------------|---------------------------------|
|---------3---2-------3-------5---|-3-------------------------------|
|---------------------------------|---------------------------------|

6:25
|---------------------------------|---------------------------------|
|---------------------------------|---------------------------------|
|---------------------------------|---------------------------------|
|---------------------------------|---------------------------------|
|---------------------------------|---------------------------------|
|-5---3---0---5-3---0---6---3-0---|-6---3---0---5-3---0---5---3-0---|

|---------------------------------|---------------------------------|
|---------------------------------|---------------------------------|
|---------------------------------|---------------------------------|
|---------------------------------|---------------------------------|
|---------------------------------|---------------------------------|
|-6---3---0---6-3---0---5---3-0---|-5---3---0---6-3---0---6---3-0---|

|---------------------------------|---------------------------------|
|---------------------------------|---------------------------------|
|---------------------------------|---------------------------------|
|---------------------------------|---------------------------------|
|---------------------------------|---------------------------------|
|-5---3---0---5-3---0---6---3-0---|-6---3---0---5-3---0---5---3-0---|

6:36
|---------------------------------|---------------------------------| |
|---------------------------------|---------------------------------| |
|---------------------------------|---------------------------------|5|
|---------------------------------|---------------------------------|4|
|---------5---------5---------4---|---------4---------3---------2---| |
|-0---3-----0---3-------0---3-----|-0---3-----0---3-------0---3-----| |

  1 e & e 2 e & e 3 e & e 4 e & e 5 e & e
|-----------------------------------------| |
|-----------------------------------------| |
|-----------------------------------------|4|
|-----------------------------------------|4|
|---------2---------1-----0-------0h1-----| |
|-0---3-----0---3-------0-------------3-2-| |

|---------------------------------|---------------------------------|
|---------------------------------|---------------------------------|
|---------------------------------|---------------------------------|
|---------------------------------|---------------------------------|
|---------5---------5---------4---|---------4---------3---------2---|
|-0---3-----0---3-------0---3-----|-0---3-----0---3-------0---3-----|

|---------------------------------|---------------------------------|
|---------------------------------|---------------------------------|
|---------------------------------|---------------------------------|
|---------------------------------|---------------------------------|
|---------2---------1-----0-------|-0h1-----------------------------|
|-0---3-----0---3-------0---------|-----3-2-0-----------x-(w/effect)|

|---------------------------------|---------------------------------|
|---------------------------------|---------------------------------|
|---------------------------------|---------------------------------|
|---------------------------------|---------------------------------|
|-----------------------------5---|-----4-------3-------0-------0---|
|---------x-----------x-------5---|-----4-------3-------0-------0---|
                                                        yeah    yeah
6:54
  1 e & e 2 e & e 3 e & e 4 e & e     1 e & e 2 e & e
|---------------------------------| |-----------------| |
|---------------------------------| |-----------------| |
|.--------------------------------|2|----------------.|4|
|.--------------------------------|4|-----2---2------.|4|
|-----------------------------3/4-| |-4-----------4---| |
|-----0---2---2---3---3-----------| |-----------------| |

|---------------------------------|---------------------------------|
|---------------------------------|---------------------------------|
|---------------------------------|---------------------------------|
|---------------------------------|-----3---3---2-------------------|
|-----------------------------3/4-|-4-------------------1---3---1---|
|-----0---2---2---3---3-----------|---------------------------------|

|---------------------------------|---------------------------------|
|---------------------------------|---------------------------------|
|---------------------------------|---------------------------------|
|---------------------------------|---------------------------------|
|/4---3-----------------3---------|---------------------------------|
|-----------4-----3-----------2---|---1-----5-----6-----0---3---4---|

7:08
|---------------------------------|---------------------------------|
|---------------------------------|---------------------------------|
|.--------------------------------|---------------------------------|
|.--------------------------------|---------------------------------|
|---------------------------------|---------------------------------|
|-5-------x---8-----------5---3---|-0-------x---3-----------0---3---|

|---------------------------------|---------------------------------|
|---------------------------------|---------------------------------|
|---------------------------------|---------------------------------|
|---------------------------------|---------------------------------|
|---------------------------------|---------------------------------|
|-5-------x---8-------8---5---3---|-0-------0---3-----------0---3---|

|---------------------------------|---------------------------------|
|---------------------------------|---------------------------------|
|---------------------------------|---------------------------------|
|---------------------------------|---------------------------------|
|---------------------------------|---------------------------------|
|-5-------x---8-----------5---3---|-0-------x---3-------3---0---3---|

|---------------------------------|---------------------------------|
|-3-------3-------3-/-5---5-------|---------------------------------|
|-3-------3-------3-/-5---5-------|---------------------------------|
|-3-------3-------3-/-5---5-------|-7-\-----------------------------|
|---------------------------------|-7-\-----------------------------|
|---------------------------------|-7-\-----------------------------|

|---------------------------------|---------------------------------|
|---------------------------------|---------------------------------|
|---------------------------------|---------------------------------|
|---------------------------------|---------------------------------|
|---------------------------------|---------------------------------|
|-5-------x---5-------0---3---4---|-5-------x---5-------0---5---3---|

|---------------------------------|---------------------------------|
|---------------------------------|---------------------------------|
|---------------------------------|---------------------------------|
|---------------------------------|---------------------------------|
|---------------------------------|---------------------------------|
|-2-------x---2-------0---7---5---|-2-------x---2-------2---2---0---|

7:31
|---------------------------------|---------------------------------|
|---------------------------------|---------------------------------|
|---------------------------------|---------------------------------|
|-5-------------------------------|---------------------2-2-2---2---|
|-------------5---------------3-/-|-7-------------------------------|
|---------------------------------|---------------------------------|

                                                                 3X
|---------------------------------|-------------0-------------------|
|---------------------------------|-------------1----w/ w.b.--------|
|---------------------------------|-------------2------------------.|
|-3---2---------------------------|--------------------------------.|
|---------3---2-------3-------5---|-3-------------------------------|
|---------------------------------|---------------------------------|


more tabs on http://membres.tripod.fr/Fea

comments : feanor@libertysurf.fr

Almost there ...

Sign in to get your own page with links to favourite songs and more. You are just one click away...

Login with Facebook Login with Google