Log in

One click and you are in

Login with Facebook Login with Google

Why sign up and log in

Guitar Tabs Explorer
Ben Harper tabs for Oppresion

Guitar tabs

Oppression  by Ben Harper

>From the album Fight For Your Mind
Ben plays it on a Martin 00-18,and it's
all finger picked.Notice that the guitar
is tune a step lower than standard.
Transcription I. Lindsay
A chord diagramD MajorD|-----------------------------------------|
A chord diagramA augmentedA|---0-h-1----1-------0--------0-----1-----|
A chord diagramFF|---0-h-2----2-------0--------0-----2-----|
A chord diagramC majorC|---0-h-2----2---0-------0----------2-----|
A chord diagramG+G|-----------------------------------------|
A chord diagramD MajorD|-----------------------------------------|


D-----------------------------------------|
A---0-h-1----1-------0--------0-----1-----|
F---0-h-2----2-------0--------0-----2-----|
C---0-h-2----2---0-------0----------2-----|
G-----------------------------------------|
D-----------------------------------------|


D-----------------------------------------|
A--0-h-1----1-------0--------0-----1------|
F--0-h-2----2-------0--------0-----2------|
C--0-h-2----2---0-------0----------2------|
G-----------------------------------------|
D-----------------------------------------|
oppression        ..


D-----------------------------------------|
A--1----1-----------1-----0----0----------|
F--0----0-----------0-----0----0----------|
C--2----2-----------2---------------------|
G--3----3-------3-------------------------|
D-------------------------3----3----------|
    when    ..

D-----------------------------------------|
A--0-h-1----1-------0--------0-----1------|
F--0-h-2----2-------0--------0-----2------|
C--0-h-2----2---0-------0----------2------|
G-----------------------------------------|
D-----------------------------------------|
      oppression   ..


D-----------------------------------------|
A--1----1-----------1-----0----0----------|
F--0----0-----------0-----0----0----------|
C--2----2-----------2---------------------|
G--3----3-------3-------------------------|
D-------------------------3----3----------|
    the   ..


D-----------------------------------------|
A--0-h-1----1-------0--------0-----1------|
F--0-h-2----2-------0--------0-----2------|
C--0-h-2----2---0-------0----------2------|
G-----------------------------------------|
D-----------------------------------------|
     oppression     ..


D-----------------------------------------|
A--1----1-----------1-----0----0----------|
F--0----0-----------0-----0----0----------|
C--2----2-----------2---------------------|
G--3----3-------3-------------------------|
D-------------------------3----3----------|
    you   ...


D-----------------------------------------|
A--0-h-1----1-------0--------0-----1------|
F--0-h-2----2-------0--------0-----2------|
C--0-h-2----2---0-------0----------2------|
G-----------------------------------------|
D-----------------------------------------|
   oppression   ..


D-----------------------------------------|
A--1----1-----------1-----0----0----------|
F--0----0-----------0-----0----0----------|
C--2----2-----------2---------------------|
G--3----3-------3-------------------------|
D-------------------------3----3----------|
       with   ..


D-----------------------------------------|
A--0-h-1----1-------0--------0-----1------|
F--0-h-2----2-------0--------0-----2------|
C--0-h-2----2---0-------0----------2------|
G-----------------------------------------|
D-----------------------------------------|
      but  ..


D-------------------------0---------------|
A--3----3-----------3------------0--------|
F--2----2-----------2------------0--------|
C--0----0-------0-------------------------|
G-----------------------------------------|
D-------------------------0------3--------|
      you   ..


D-----------------------------------------|
A--0-h-1----1-------0--------0-----1------|
F--0-h-2----2-------0--------0-----2------|
C--0-h-2----2---0-------0----------2------|
G-----------------------------------------|
D-----------------------------------------|
     oppression  ..


D-----------------------------------------|
A--1----1-----------1-----0----0----------|
F--0----0-----------0-----0----0----------|
C--2----2-----------2---------------------|
G--3----3-------3-------------------------|
D-------------------------3----3----------|
       to   ...


D-----------------------------------------|
A--0-h-1----1-------0--------0-----1------|
F--0-h-2----2-------0--------0-----2------|
C--0-h-2----2---0-------0----------2------|
G-----------------------------------------|
D-----------------------------------------|


D-----------------------------------------|
A--1----1-----------1-----0----0----------|
F--0----0-----------0-----0----0----------|
C--2----2-----------2---------------------|
G--3----3-------3-------------------------|
D-------------------------3----3----------|


D-----------------------------------------|
A--0-h-1----1-------0--------0-----1------|
F--0-h-2----2-------0--------0-----2------|
C--0-h-2----2---0-------0----------2------|
G-----------------------------------------|
D-----------------------------------------|


D-----------------------------------------|
A--1----1-----------1-----0----0----------|
F--0----0-----------0-----0----0----------|
C--2----2-----------2---------------------|
G--3----3-------3-------------------------|
D-------------------------3----3----------|


D-----------------------------------------|
A--0-h-1----1-------0--------0-----1------|
F--0-h-2----2-------0--------0-----2------|
C--0-h-2----2---0-------0----------2------|
G-----------------------------------------|
D-----------------------------------------|


D-----------------------------------------|
A--1----1-----------1-----0----0----------|
F--0----0-----------0-----0----0----------|
C--2----2-----------2---------------------|
G--3----3-------3-------------------------|
D-------------------------3----3----------|


D-----------------------------------------|
A--0-h-1----1-------0--------0-----1------|
F--0-h-2----2-------0--------0-----2------|
C--0-h-2----2---0-------0----------2------|
G-----------------------------------------|
D-----------------------------------------|


D-----------------------------------------|
A--1----1-----------1-----0----0----------|
F--0----0-----------0-----0----0----------|
C--2----2-----------2---------------------|
G--3----3-------3-------------------------|
D-------------------------3----3----------|


D-----------------------------------------|
A--0-h-1----1-------0--------0-----1------|
F--0-h-2----2-------0--------0-----2------|
C--0-h-2----2---0-------0----------2------|
G-----------------------------------------|
D-----------------------------------------|


D-------------------------0---------------|
A--3----3-----------3------------0--------|
F--2----2-----------2------------0--------|
C--0----0-------0-------------------------|
G-----------------------------------------|
D-------------------------0------3--------|


D-----------------------------------------|
A--0-h-1----1-------0--------0-----1------|
F--0-h-2----2-------0--------0-----2------|
C--0-h-2----2---0-------0----------2------|
G-----------------------------------------|
D-----------------------------------------|


D-----------------------------------------|
A--1----1-----------1-----0----0----------|
F--0----0-----------0-----0----0----------|
C--2----2-----------2---------------------|
G--3----3-------3-------------------------|
D-------------------------3----3----------|


D-----------------------------------------|
A--0-h-1----1-------0--------0-----1------|
F--0-h-2----2-------0--------0-----2------|
C--0-h-2----2---0-------0----------2------|
G-----------------------------------------|
D-----------------------------------------|


D-----------------------------------------|
A--1----1-----------1-----0----0----------|
F--0----0-----------0-----0----0----------|
C--2----2-----------2---------------------|
G--3----3-------3-------------------------|
D-------------------------3----3----------|


D-----------------------------------------|
A--0-h-1----1-------0--------0-----1------|
F--0-h-2----2-------0--------0-----2------|
C--0-h-2----2---0-------0----------2------|
G-----------------------------------------|
D-----------------------------------------|


D-----------------------------------------|
A--1----1------------1----0----0----------|
F--0----0----------0------0----0----------|
C--2----2--------2------------------------|
G--3----3------3--------------------------|
D-------------------------3----3----------|
               (Sweep)


D-----------------------------------------|
A--0-h-1----1-------0--------0-----1------|
F--0-h-2----2-------0--------0-----2------|
C--0-h-2----2---0-------0----------2------|
G-----------------------------------------|
D-----------------------------------------|


D-----------------------------------------|
A--1----1-----------1-----0----0----------|
F--0----0-----------0-----0----0----------|
C--2----2-----------2---------------------|
G--3----3-------3-------------------------|
D-------------------------3----3----------|


D-----------------------------------------|
A--0-h-1----1-------0--------0-----1------|
F--0-h-2----2-------0--------0-----2------|
C--0-h-2----2---0-------0----------2------|
G-----------------------------------------|
D-----------------------------------------|


D-----------------------------------------|
A--1----1-----------1-----0----0----------|
F--0----0-----------0-----0----0----------|
C--2----2-----------2---------------------|
G--3----3-------3-------------------------|
D-------------------------3----3----------|


D-----------------------------------------|
A--0-h-1----1-------0--------0-----1------|
F--0-h-2----2-------0--------0-----2------|
C--0-h-2----2---0-------0----------2------|
G-----------------------------------------|
D-----------------------------------------|


D-------------------------0---------------|
A--3----3-----------3------------0--------|
F--2----2-----------2------------0--------|
C--0----0-------0-------------------------|
G-----------------------------------------|
D-------------------------0------3--------|


D-----------------------------------------|
A--0-h-1----1-------0--------0-----1------|
F--0-h-2----2-------0--------0-----2------|
C--0-h-2----2---0-------0----------2------|
G-----------------------------------------|
D-----------------------------------------|


D-----------------------------------------|
A--1----1-----------1-----0----0----------|
F--0----0-----------0-----0----0----------|
C--2----2-----------2---------------------|
G--3----3-------3-------------------------|
D-------------------------3----3----------|


D-----------------------------------------|
A--0-h-1----1-------0--------0-----1------|
F--0-h-2----2-------0--------0-----2------|
C--0-h-2----2---0-------0----------2------|
G-----------------------------------------|
D-----------------------------------------|


D-----------------------------------------|
A--1----1-----------1-----0----0----------|
F--0----0-----------0-----0----0----------|
C--2----2-----------2---------------------|
G--3----3-------3-------------------------|
D-------------------------3----3----------|


D-----------------------------------------|
A--0-h-1----1-------0--------0-----1------|
F--0-h-2----2-------0--------0-----2------|
C--0-h-2----2---0-------0----------2------|
G-----------------------------------------|
D-----------------------------------------|


D-----------------------------------------|
A--1----1------------1----0----0----------|
F--0----0----------0------0----0----------|
C--2----2--------2------------------------|
G--3----3------3--------------------------|
D-------------------------3----3----------|
               (Sweep)


D-----------------------------------------|
A--0-h-1----1-------0--------0-----1------|
F--0-h-2----2-------0--------0-----2------|
C--0-h-2----2---0-------0----------2------|
G-----------------------------------------|
D-----------------------------------------|


D-----------------------------------------|
A--0-h-1----1-------0--------0-----1------|
F--0-h-2----2-------0--------0-----2------|
C--0-h-2----2---0-------0----------2------|
G-----------------------------------------|
D-----------------------------------------|


D-----------------------------------------|
A--0-h-1----1-------0--------0-----1------|
F--0-h-2----2-------0--------0-----2------|
C--0-h-2----2---0-------0----------2------|
G-----------------------------------------|
D-----------------------------------------|


E-----------------------------------------|
B-----------------------------------------|
G-----------------------------------------|
D-----------------------------------------|
A-----------------------------------------|
E-----------------------------------------|


E-----------------------------------------|
B-----------------------------------------|
G-----------------------------------------|
D-----------------------------------------|
A-----------------------------------------|
E-----------------------------------------|


D-----------------------------------------|
A-------------------------------<12>------|
F-------------------------------<12>------|
C-----------------<12>--------------------|
G---------<12>----------------------------|
D--<12>-----------------------------------|


E-----------------------------------------|
B-----------------------------------------|
G-----------------------------------------|
D-----------------------------------------|
A-----------------------------------------|
E-----------------------------------------|


D-----------------------------------------|
A-------------------------------<12>------|
F-------------------------------<12>------|
C-----------------<12>--------------------|
G---------<12>----------------------------|
D--<12>-----------------------------------|


E-----------------------------------------|
B-----------------------------------------|
G-----------------------------------------|
D-----------------------------------------|
A-----------------------------------------|
E-----------------------------------------|


D-----------------------------------------||
A-------------------------------<12>------||
F-------------------------------<12>------||
C-----------------<12>--------------------||
G---------<12>----------------------------||
D--<12>-----------------------------------||

rest of the lyrics (they fit in the same way
as above) :

Other versions of Oppresion

OppresionChords

Almost there ...

Sign in to get your own page with links to favourite songs and more. You are just one click away...

Login with Facebook Login with Google