Log in

One click and you are in

Login with Facebook Login with Google

Why sign up and log in

Guitar Tabs Explorer
A Perfect Circle tabs for Blue

Guitar tabs with lyrics

Band: a perfect circle


This song is tuned to "dropped c" (just as every other one of their songs)
Unlike other songs, this is a tricky one all these tabs are 100% correct.
Just make sure you have your guitar tuned to them. So far this is all I got
but I'm positive these are correct.

If you're interested in any other songs by "a perfect circle" or "tool" email
me at depthperception2004@yahoo.com

Bass or Guitar ? Starting verse
---------------------------------------------------------------------------------
---------------------------------------------------------------------------------
---------------------------------------------------------------------------------
---------------------------------------------------------------------------------
---------------------------------------------------------------------------------
--16p15-15--16p15-15---0-0-0-0-0-0--------------------------------

behind this riff another guitar plays
---------------------------------------------------------------------------------
---------------------------------------------------------------------------------
---------------------------------------------------------------------------------
---------------------------------------------------------------------------------
----------------------------------15---18p15--------------------------------
---------------------------------------------------------------------------------


CHORUS Lead Guitar
-------------------------------------------------
----------------------------13------------------
--15^--14--15--10--------------------------
-------------------------13---------------------
-------------------------------------------------
-------------------------------------------------

Almost there ...

Sign in to get your own page with links to favourite songs and more. You are just one click away...

Login with Facebook Login with Google