Guitar Tabs Explorer
Ghost guitar tabs for Witch image

Witch Image tab


5 / 5 [2 votes]

Witch Image tab by Ghost

"Witch Image" is a song Swedish heavy metal band Ghost included on their fourth studio album, "Prequelle". "Witch Image" and the album was released on June 1, 2018.

Guitar tabs with lyrics

Print
Tuning: D chord diagramDD Tuning (D chord diagramDD G chord diagramGG C chord diagramCC F chord diagramFF A chord diagramAA D chord diagramDD)

Key: Cm chord diagramCmCm

Difficulty: Intermediate

Tuning: D chord diagramDD Standard (D chord diagramDD G chord diagramGG C chord diagramCC F chord diagramFF A chord diagramAA D chord diagramDD)


Intro:

Guitar 1 - Rhythm Distorted

D|--------------------------------------------------------------------------|
A|--------------------------------------------------------------------------|
F| chord diagramF|F|--7--------3-----------------------------------7--------10-------5--------|
C| chord diagramC|C|--7--------3--------3--------7--------8--------7--------10-------5--------|
G|--5--------1--------3--------7--------8--------5--------8--------3--------|
D|--------------------1--------5--------6-----------------------------------|


Guitar 2 – Lead Distorted

D|----------|-------------------|----------|-------------------|
A|----------|-------------------|----------|-------------------|
F| chord diagramF|F|:---------|-------------------|----------|------------------:|
C| chord diagramC|C|:---------|-------------------|----------|------------------:|
G|----------|--0-3-0-5h7p5-3-0--|----------|--0-3-0-5h7p5-3-0--|
D|----------|-------------------|----------|-------------------|


Verse:

Guitar 1 - Rhythm Acoustic w/ Effect

D|---------------3ww--|
A|------3/5-6----3ww--|
F| chord diagramF|F|:---2-------5--4ww-:|
C| chord diagramC|C|:-0------------5ww-:|
G|---------------5ww--|
D|---------------3ww--|


Guitar 2 - Synthesizer/Lead Distorted Riff

Synthesizer plays both bars, guitar plays the second bar.


D|-------------15/17\15--|-----13----15/17\15-13-12-----|
A|--15~-13h15------------|--15----15----------------15--|
F| chord diagramF|F|-----------------------|------------------------------|
C| chord diagramC|C|-----------------------|------------------------------|
G|-----------------------|------------------------------|
D|-----------------------|------------------------------|


Chorus:

Guitar 1 - Rhythm Distorted

D|--------------------------------------------------------------------------|--------|
A|--------------------------------------------------------------------------|--------|
F| chord diagramF|F|:-7--------3-----------------------------------7--------10-------5--------|-----5-:|
C| chord diagramC|C|:-7--------3--------3--------7--------8--------7--------10-------5--------|--7--5-:|
G|--5--------1--------3--------7--------8--------5--------8--------3--------|--7--3--|
D|--------------------1--------5--------6-----------------------------------|--5-----|


Guitar 2 – Lead Distorted

D|----------|-------------------|----------|-------------------|
A|----------|-------------------|----------|-------------------|
F| chord diagramF|F|:---------|-------------------|----------|------------------:|
C| chord diagramC|C|:---------|-------------------|----------|------------------:|
G|----------|--0-3-0-5h7p5-3-0--|----------|--0-3-0-5h7p5-3-0--|
D|----------|-------------------|----------|-------------------|


Verse:

Guitar 1 - Rhythm Acoustic w/ Effect

D|---------------3ww--|
A|------3/5-6----3ww--|
F| chord diagramF|F|:---2-------5--4ww-:|
C| chord diagramC|C|:-0------------5ww-:|
G|---------------5ww--|
D|---------------3ww--|


Guitar 2 - Synthesizer/Lead Distorted Riff

Synthesizer plays both bars, guitar plays the second bar.


D|-------------15/17\15--|-----13----15/17\15-13-12-----|
A|--15~-13h15------------|--15----15----------------15--|
F| chord diagramF|F|-----------------------|------------------------------|
C| chord diagramC|C|-----------------------|------------------------------|
G|-----------------------|------------------------------|
D|-----------------------|------------------------------|


Chorus:

Guitar 1 - Rhythm Distorted

D|--------------------------------------------------------------------------|--------|
A|--------------------------------------------------------------------------|--------|
F| chord diagramF|F|:-7--------3-----------------------------------7--------10-------5--------|-----5-:|
C| chord diagramC|C|:-7--------3--------3--------7--------8--------7--------10-------5--------|--7--5-:|
G|--5--------1--------3--------7--------8--------5--------8--------3--------|--7--3--|
D|--------------------1--------5--------6-----------------------------------|--5-----|


Guitar 2 – Lead Distorted

D|----------|-------------------|----------|-------------------|
A|----------|-------------------|----------|-------------------|
F| chord diagramF|F|:---------|-------------------|----------|------------------:|
C| chord diagramC|C|:---------|-------------------|----------|------------------:|
G|----------|--0-3-0-5h7p5-3-0--|----------|--0-3-0-5h7p5-3-0--|
D|----------|-------------------|----------|-------------------|


Interlude:

Guitar 1 - Distorted Harmony

D|----------13-12-----------|----------13-12---------------|----------13-12---------------|
A|-----15---------15-13-15~~|-----15---------15-13-15~-----|-----15---------15-13~-18-20~-|
F| chord diagramF|F|:-/14--14-----------------|--/14--14----------------14~--|--/14--14---------------------|
C| chord diagramC|C|:-------------------------|------------------------------|------------------------------|
G|--------------------------|------------------------------|------------------------------|
D|--------------------------|------------------------------|------------------------------|
                            1.                             2.
D|--------------------------|------------------------------|----------------|
A|-------13h17p13----/18p17~|-----------------6---8-6-5----|----------------|
F| chord diagramF|F|-----14---------14--------|--/12-10-9--9~--7-7--------5-:|--/12-10-9--9~--|
C| chord diagramC|C|--15~---------------------|----------10-----------------:|----------10~~--|
G|--------------------------|------------------------------|----------------|
D|--------------------------|------------------------------|----------------|

Guitar 2 to be added soon.


Final Chorus: x 2

Guitar 1 - Rhythm Distorted

D|--------|
A|--------|
F| chord diagramF|F|-----5--|
C| chord diagramC|C|--7--5--|
G|--7--3--|
D|--5-----|

D|--------------------------------------------------------------------------|
A|--------------------------------------------------------------------------|
F| chord diagramF|F|--7--------3-----------------------------------7--------10-------5--------|
C| chord diagramC|C|--7--------3--------3--------7--------8--------7--------10-------5--------|
G|--5--------1--------3--------7--------8--------5--------8--------3--------|
D|--------------------1--------5--------6-----------------------------------|

Guitar 2 – Lead Distorted

D|----------|-------------------|----------|-------------------|
A|----------|-------------------|----------|-------------------|
F| chord diagramF|F|:---------|-------------------|----------|------------------:|
C| chord diagramC|C|:---------|-------------------|----------|------------------:|
G|----------|--0-3-0-5h7p5-3-0--|----------|--0-3-0-5h7p5-3-0--|
D|----------|-------------------|----------|-------------------|



Enjoy and feel free to make corrections!


Glossary
~ – vibrato, hold note
w - whammy
/ - slide
h – hammer-on
p – pull-on
: - repeat measure

Other versions of Witch Image

- Witch imageChords

Comment this song and these guitar tabs

Do you have corrections, comments on the guitar tabs, thoughts about the song or a message to the author? Write them below.