Search tabs and chords

Browse bands and artists

A B C D E F G H I J K L M N O P Q R S T U V W X Y Z #

Log in

[ Register here | Forgot password ]

Guitar Tabs Explorer
Print

Guitar tabs with lyrics:

Witch Image tab by Ghost

  • Tuning: Standard
Key: Cm




Intro
Guitar 1 - Rhythm Distorted

D|--------------------------------------------------------------------------|
A|--------------------------------------------------------------------------|
F|--7--------3-----------------------------------7--------10-------5--------|
C|--7--------3--------3--------7--------8--------7--------10-------5--------|
G|--5--------1--------3--------7--------8--------5--------8--------3--------|
D|--------------------1--------5--------6-----------------------------------|


Guitar 2 – Lead Distorted

D|----------|-------------------|----------|-------------------|
A|----------|-------------------|----------|-------------------|
F|:---------|-------------------|----------|------------------:|
C|:---------|-------------------|----------|------------------:|
G|----------|--0-3-0-5h7p5-3-0--|----------|--0-3-0-5h7p5-3-0--|
D|----------|-------------------|----------|-------------------|


Verse
Guitar 1 - Rhythm Acoustic w/ Effect

D|---------------3ww--|
A|------3/5-6----3ww--|
F|:---2-------5--4ww-:|
C|:-0------------5ww-:|
G|---------------5ww--|
D|---------------3ww--|

Guitar 2 - Synthesizer/Lead Distorted Riff

Synthesizer plays both bars, guitar plays the second bar.


D|-------------15/17\15--|-----13----15/17\15-13-12-----|
A|--15~-13h15------------|--15----15----------------15--|
F|-----------------------|------------------------------|
C|-----------------------|------------------------------|
G|-----------------------|------------------------------|
D|-----------------------|------------------------------|


Chorus
Guitar 1 - Rhythm Distorted

D|--------------------------------------------------------------------------|--------|
A|--------------------------------------------------------------------------|--------|
F|:-7--------3-----------------------------------7--------10-------5--------|-----5-:|
C|:-7--------3--------3--------7--------8--------7--------10-------5--------|--7--5-:|
G|--5--------1--------3--------7--------8--------5--------8--------3--------|--7--3--|
D|--------------------1--------5--------6-----------------------------------|--5-----|


Guitar 2 – Lead Distorted

D|----------|-------------------|----------|-------------------|
A|----------|-------------------|----------|-------------------|
F|:---------|-------------------|----------|------------------:|
C|:---------|-------------------|----------|------------------:|
G|----------|--0-3-0-5h7p5-3-0--|----------|--0-3-0-5h7p5-3-0--|
D|----------|-------------------|----------|-------------------|


Verse
Guitar 1 - Rhythm Acoustic w/ Effect

D|---------------3ww--|
A|------3/5-6----3ww--|
F|:---2-------5--4ww-:|
C|:-0------------5ww-:|
G|---------------5ww--|
D|---------------3ww--|

Guitar 2 - Synthesizer/Lead Distorted Riff

Synthesizer plays both bars, guitar plays the second bar.


D|-------------15/17\15--|-----13----15/17\15-13-12-----|
A|--15~-13h15------------|--15----15----------------15--|
F|-----------------------|------------------------------|
C|-----------------------|------------------------------|
G|-----------------------|------------------------------|
D|-----------------------|------------------------------|


Chorus
Guitar 1 - Rhythm Distorted

D|--------------------------------------------------------------------------|--------|
A|--------------------------------------------------------------------------|--------|
F|:-7--------3-----------------------------------7--------10-------5--------|-----5-:|
C|:-7--------3--------3--------7--------8--------7--------10-------5--------|--7--5-:|
G|--5--------1--------3--------7--------8--------5--------8--------3--------|--7--3--|
D|--------------------1--------5--------6-----------------------------------|--5-----|


Guitar 2 – Lead Distorted

D|----------|-------------------|----------|-------------------|
A|----------|-------------------|----------|-------------------|
F|:---------|-------------------|----------|------------------:|
C|:---------|-------------------|----------|------------------:|
G|----------|--0-3-0-5h7p5-3-0--|----------|--0-3-0-5h7p5-3-0--|
D|----------|-------------------|----------|-------------------|


Interlude
Guitar 1 - Distorted Harmony

D|----------13-12-----------|----------13-12---------------|----------13-12---------------|
A|-----15---------15-13-15~~|-----15---------15-13-15~-----|-----15---------15-13~-18-20~-|
F|:-/14--14-----------------|--/14--14----------------14~--|--/14--14---------------------|
C|:-------------------------|------------------------------|------------------------------|
G|--------------------------|------------------------------|------------------------------|
D|--------------------------|------------------------------|------------------------------|
                            1.                             2.
D|--------------------------|------------------------------|----------------|
A|-------13h17p13----/18p17~|-----------------6---8-6-5----|----------------|
F|-----14---------14--------|--/12-10-9--9~--7-7--------5-:|--/12-10-9--9~--|
C|--15~---------------------|----------10-----------------:|----------10~~--|
G|--------------------------|------------------------------|----------------|
D|--------------------------|------------------------------|----------------|

Guitar 2 to be added soon.


Final Chorus: x 2

Guitar 1 - Rhythm Distorted

D|--------|
A|--------|
F|-----5--|
C|--7--5--|
G|--7--3--|
D|--5-----|

D|--------------------------------------------------------------------------|
A|--------------------------------------------------------------------------|
F|--7--------3-----------------------------------7--------10-------5--------|
C|--7--------3--------3--------7--------8--------7--------10-------5--------|
G|--5--------1--------3--------7--------8--------5--------8--------3--------|
D|--------------------1--------5--------6-----------------------------------|

Guitar 2 – Lead Distorted

D|----------|-------------------|----------|-------------------|
A|----------|-------------------|----------|-------------------|
F|:---------|-------------------|----------|------------------:|
C|:---------|-------------------|----------|------------------:|
G|----------|--0-3-0-5h7p5-3-0--|----------|--0-3-0-5h7p5-3-0--|
D|----------|-------------------|----------|-------------------|



Enjoy and feel free to make corrections!


Glossary
~ – vibrato, hold note
w - whammy
/ - slide
h – hammer-on
p – pull-on
: - repeat measure

"Witch Image" is a song Swedish heavy metal band Ghost included on their fourth studio album, "Prequelle". "Witch Image" and the album was released on June 1, 2018.

Other versions of Witch Image

Witch imageChords

Comments

Ghost guitar tabs for Witch image