Log in

One click and you are in

Login with Facebook Login with Google

Why sign up and log in

Guitar Tabs Explorer
Thundercat bass tabs for King of the hill

Bass tabs

Tuning: Standard (E A D G)


Intro:

(0:34)   "Love, love, love, love"

G|------------------------------------------------4/6--6/8-8-6-------------------------|
D|--------------------------------6-----6-8------6----6-----------8---6---4-4----------|
A|----4---4--(4)4--4-2----------6-----6------4-------------------8---8---6-----3-------|
E|---------------------4/6---6------------------------------------------------4---4----|

Verse 1:

      "You say you ain't got time for games"

G|------------------------------------------------4/6--6/8-8-6-------------------------|
D|--------------------------------6-----6-8------6----6-----------8---6---4-4----------|
A|----4---4--(4)4--4-2----------6-----6------4-------------------8---8---6-----3-------|
E|---------------------4/6---6------------------------------------------------4---4----|


G|------------------------------------------------4/6--6/8-8-6-------------------------|
D|--------------------------------6-----6-8------6----6-----------8---6---4-4----------|
A|----4---4--(4)4--4-2----------6-----6------4-------------------8---8---6-----3-------|
E|---------------------4/6---6------------------------------------------------4---4----|


Pre-Chorus:

      "I've seen a lotta things come and go"

G|--------------------------------------------------4/6--6/8--6-----------------------|
D|-------------------------------------6-8p6-------6----6----8-8-6--8---8-------6-----|
A|----4---4---------------------------8-8---8--4----------------8---------------------|
E|----------2---2-4---4-2/4--6--6-9--9--------------------------------------4-4--4----|


Chorus:

      No bass


Verse 2:

      "But you know you gotta pay to play"

G|------------------------------------------------4/6--6/8-8-6-------------------------|
D|--------------------------------6-----6-8------6----6-----------8---6---4-4----------|
A|----4---4--(4)4--4-2----------6-----6------4-------------------8---8---6-----3-------|
E|---------------------4/6---6------------------------------------------------4---4----|


G|------------------------------------------------4/6--6/8-8-6-------------------------|
D|--------------------------------6-----6-8------6----6-----------8---6---4-4----------|
A|----4---4--(4)4--4-2----------6-----6------4-------------------8---8---6-----3-------|
E|---------------------4/6---6------------------------------------------------4---4----|


Pre-Chorus:


G|--------------------------------------------------4/6--6/8--6-----------------------|
D|-------------------------------------6-8p6-------6----6----8-8-6--8---8-------6-----|
A|----4---4---------------------------8-8---8--4----------------8---------------------|
E|----------2---2-4---4-2/4--6--6-9--9--------------------------------------4-4--4----|


Chorus:

      No bass


Outro:

      "Love, love, love, love"

G|------------------------------------------------4/6--6/8-8-6-------------------------|
D|--------------------------------6-----6-8------6----6-----------8---6---4-4----------|
A|----4---4--(4)4--4-2----------6-----6------4-------------------8---8---6-----3-------|
E|---------------------4/6---6------------------------------------------------4---4----|


************************************

| (n) Ghost note
| h  Hammer-on
| p  Pull-off
| /  Slide up

************************************

Almost there ...

Sign in to get your own page with links to favourite songs and more. You are just one click away...

Login with Facebook Login with Google