Search tabs and chords

Browse bands and artists

A B C D E F G H I J K L M N O P Q R S T U V W X Y Z #

Log in

[ Register here | Forgot password ]

Guitar Tabs Explorer
Print

Guitar tabs :

Marijuana Motherfucker tab by D.o.a.

Intro
                        PH
e|-----------------------------|
B|-----------------------------|
G|-----------------------------|
D|-----------------------------|x2
A|---5----5---5p3--5p3--(5)----|
E|---3----3--------------------|

                                      PM............
e|----------------------------------|-----------------------------------------|
B|----------------------------------|-----------------------------------------|
G|----------------------------------|-------------------7-7-7-7-7-7-7-7-------|
D|--7--7--7--7---7---5--5--5--5---5-|-------------------5-5-5-5-5-5-5-5-------|
A|--5--5--5--5---5---3--3--3--3---3-|--5-5-5-5-5-5-5-5------------------------|
E|----------------------------------|--3-3-3-3-3-3-3-3------------------------|
Chorus
    PM............              PM............
e|-------------------3-------|-------------------3-------|
B|-------------------3--3----|-------------------3--3----|
G|----------------------4----|----------------------4----|
D|---------------------------|---------------------------|
A|--5-5-5-5-5-5-5-5----------|--5-5-5-5-5-5-5-5----------|
E|--3-3-3-3-3-3-3-3----------|--3-3-3-3-3-3-3-3----------|
e|----------------------------------|-------------------15-15-15-15-15-15-15-15--|
B|----------------------------------|-------------------15-15-15-15-15-15-15-15--|
G|----------------------------------|-------------------12-12-12-12-12-12-12-12--|
D|--7--7--7--7---7---5--5--5--5---5-|--------------------------------------------|
A|--5--5--5--5---5---3--3--3--3---3-|--5-5-5-5-5-5-5-5---------------------------|
E|----------------------------------|--3-3-3-3-3-3-3-3---------------------------|

    PM............              PM............
e|-------------------3-------|-------------------3-------|
B|-------------------3--3----|-------------------3--3----|
G|----------------------4----|----------------------4----|
D|---------------------------|---------------------------|
A|--5-5-5-5-5-5-5-5----------|--5-5-5-5-5-5-5-5----------|
E|--3-3-3-3-3-3-3-3----------|--3-3-3-3-3-3-3-3----------|

e|----------------------------------|---------------------------|
B|----------------------------------|---------------------------|
G|----------------------------------|---------------------------|
D|--7--7--7--7---7---5--5--5--5---5-|---------------------------|
A|--5--5--5--5---5---3--3--3--3---3-|--5-5-5-5-5-5-5-5----------|
E|----------------------------------|--3-3-3-3-3-3-3-3----/15\--|

    PM............              PM............
e|-------------------3-------|-------------------3-------|
B|-------------------3--3----|-------------------3--3----|
G|----------------------4----|----------------------4----|
D|---------------------------|---------------------------|
A|--5-5-5-5-5-5-5-5----------|--5-5-5-5-5-5-5-5----------|
E|--3-3-3-3-3-3-3-3----------|--3-3-3-3-3-3-3-3----------|

e|----------------------------------|---------------------------|
B|----------------------------------|---------------------------|
G|----------------------------------|---------------------------|
D|--7--7--7--7---7---5--5--5--5---5-|---------------------------| pick scrape
A|--5--5--5--5---5---3--3--3--3---3-|--5-5-5-5-5-5-5-5----------|
E|----------------------------------|--3-3-3-3-3-3-3-3----------|

[Bridge}
e|----------------------------|----------------------------|
B|----------------------------|----------------------------|
G|----------------------------|----------------------------|
D|--3---3---5-5-5-------------|--3---3---------------------|
A|--1---1---3-3-3--5-5-x--5-5-|--1---1--3-3-3--5-5-x--5-5--|
E|-----------------3-3-x--3-3-|---------1-1-1--3-3-x--3-3--|

e|----------------------------|------15----15----15----15----15----15----15~--|
B|----------------------------|------15----15----15----15----15----15----15~--|
G|----------------------------|--17b----17b---17b---17b---17b---17b---17b-----|
D|--3---3---5-5-5-------------|-----------------------------------------------|
A|--1---1---3-3-3--5-5-x--5-5-|-----------------------------------------------|
E|-----------------3-3-x--3-3-|-----------------------------------------------|

Section just bass section. "mari marijuana, mari marijuana"
Chorus
    P.M...........              P.M...........
e|-------------------3-------|-------------------3-------|
B|-------------------3--3----|-------------------3--3----|
G|----------------------4----|----------------------4----|
D|---------------------------|---------------------------|
A|--5-5-5-5-5-5-5-5----------|--5-5-5-5-5-5-5-5----------|
E|--3-3-3-3-3-3-3-3----------|--3-3-3-3-3-3-3-3----------|
e|----------------------------------|---------------------------|
B|----------------------------------|---------------------------|
G|----------------------------------|---------------------------|
D|--7--7--7--7---7---5--5--5--5---5-|---------------------------| x3
A|--5--5--5--5---5---3--3--3--3---3-|--5-5-5-5-5-5-5-5----------|
E|----------------------------------|--3-3-3-3-3-3-3-3----------|

Outro
e|-----------|
B|-----------|
G|-----------|
D|-----------|
A|--5-5-5-5--|
E|--3-3-3-3--|


************************************

| x   Dead note
| p   Pull-off
| B   Bend
| /   Slide up
| \   Slide down
| ~   Vibrato
| PM  Palm mute
| PH  Pinched harmonic

Comments

D.o.a. guitar tabs for Marijuana motherfucker