Key West Intermezzo by John Mellencamp

Key West Intermezzo bass tab by John Mellencamp

Bass tabs

John Mellencamp - "Key West Intermezzo(I Saw You First)" - Bass Tab

^ above the note means play stacatto(short, sharp)


Intro:
         (x8)
|--------|-----------|
|--------|*---------*|
|--------|*-^-^-----*|
|-r-r-7/-|--2-2-2----|
 1 2 &   1 2 3 4

Verse Riff 1:
|-----------|
|*---------*|
|*-^-^-^---*|
|--2-2-2----|

Verse Riff 2:
|------------|---------|---------------|
|------------|---------|---------------|
|-^-^-^------|-^-^-^---|-^-^-^---------| (I'm not sure if it is
|-2-2-2---2/-|-7-7-7---|-7-7-7---7/(2)-|  7(B) or 6(Bb))
 1 2 3 4 &  1 2 3 4  1 2 3 4 &

Chorus:
						  _____    _____
						  |all.	  |last
|--------------|-----------|-----------|------------|---------|
|*-------------|-----------|-----------|-----------*|---------|
|*-2---2-----2-|-^-^-------|-^-^-------|-^-^-------*|---------|
|--------------|-2-2-2---2-|-4-4-4---4-|-2-2-2---2--|-2-------|
  1 2 & 3 4 &  1 2 3 4 &  1 2 3 4 &  1 2 3 4 &  1 2 3 4

By: Johari Taylor
E-mail: viking@powerup.com.au

Find guitar tabs and chords

A B C D E F G H I J K L M N O P Q R S T U V W X Y Z #