Guitar Tabs Explorer
Chromeo bass tabs for Night by night

Night By Night bass tab


Be the first to rate

Night By Night bass tab by Chromeo

Bass tabs

Print
G|--------------------------|
D|--------------------------|
A|-------6-5-3-------3-5-6--|
E|-88888-------44444--------|

*******************************************************************

Verse exapmle:
G|------------------------------------------------------|
D|------------------------------------------------------|
A|----------------------6-5-3---------------------3-5-6-|
E|-88888888888888888888-------4444444444444444444-------|
   I know, inside of me      Sooner....to be free


Chorus exapmle:
G|--------------------------------------------------------------------|
D|--------------------------------------------------------------------|
A|------------------------6---5---3-----------------------3----5---6--|
E|-88888888888888888888--------------4444444444444444444--------------|
   She ..romantic ..too dramatic     I tell her while .. Night by night


*****************************************************************
Bass Guitar: there is one simple loop in this song that repeats all the time:

G|--------------------------|
D|--------------------------|
A|--------------------------|
E|-88888---5----44444---5---|

Comment this song and these bass tabs

Do you have corrections, comments on the bass tabs, thoughts about the song or a message to the author? Write them below.