Log in

One click and you are in

Login with Facebook Login with Google

Why sign up and log in

Guitar Tabs Explorer
Modest Mouse tabs for Sleepwalking

Guitar tabs

Title: Sleepwalking
Album: Building Nothing Out Of Something


Standard Tuning

Riff 1


-8--3--1--3--4--3--1----------------------------------------------------
-8--5--3--5--6--5--3----------------------------------------------------
------------------------------------------------------------------------
------------------------------------------------------------------------
------------------------------------------------------------------------
------------------------------------------------------------------------


Rhythm Guitar (Light Palm Mute and Tremolo)

  A chord diagramC majorC            A chord diagramA minorAm           F?           A chord diagramG+G

------------------------------------------------------------------------
--------5------------1------------1-------------------------------------
------5---5--------2---2--------1---1----------4------------------------
----5-------5----2-------2----0-------0------5---5----------------------
--3------------0---------------------------5-------5--------------------
----------------------------1------------3------------------------------


Riff 2

------------------------------------------------------------------------
-1-1-1-1-3-1--0-0-0-0-1-0-----------------------------------------------
--------------------------0-0-0-0-2-0-----------------------------------
--------------------------------------2-3-2---2-3-2---------------------
--------------------------------------------3---------------------------
------------------------------------------------------------------------


Riff 3

-1h3-0h3p0--------------------------------------------------------------
-----------1---------5--5-----------------------------------------------
-------------2-----5----5-----------------------------------------------
------------------------------------------------------------------------
------------------------------------------------------------------------
------------------------------------------------------------------------


Riff 4


--3/5---12\8------------------------------------------------------------
------------------------------------------------------------------------
------------------------------------------------------------------------
------------------------------------------------------------------------
------------------------------------------------------------------------
------------------------------------------------------------------------


And End On

  A chord diagramC majorC

--0---------------------------------------------------------------------
--1---------------------------------------------------------------------
--0---------------------------------------------------------------------
--2---------------------------------------------------------------------
--3---------------------------------------------------------------------
------------------------------------------------------------------------


Listen to the Album to put the whole thing together and for specific
rhythm.


Questions, comments: scott_houle@hotmail.com

Almost there ...

Sign in to get your own page with links to favourite songs and more. You are just one click away...

Login with Facebook Login with Google