Search tabs and chords

Search for song, artist or band

Log in

One click and you are in

Login with Facebook Login with Google

Why sign up and log in

Guitar Tabs Explorer
Bee Gees guitar chords for How love was true

Guitar chords with lyrics

Tuning: Standard (E chord diagramEE A chord diagramAA D chord diagramDD G chord diagramGG B chord diagramBB E chord diagramEE)

Difficulty: Novice

Intro:
                         D chord diagramDD
e|---------------5----|-------------5----|
B|--------8--------8--|------8--------8--|
G|------7-7--------7--|------7--------7--|
D|----7--------7------|----7------7------|
A|--5--------5--------|--5------5--------|
E|--------------------|------------------|

Verse 1:
D chord diagramDD                                              G chord diagramGG  A chord diagramAA
Ooh, love was true yesterday. I love you ev'ry way
G chord diagramGG                        F#m chord diagramF#mF#m
 I saw you standing there,  you gave me cause to stare
Em chord diagramEmEm                               A chord diagramAA
  And then I knew, I had to have you

Verse 2:
D chord diagramDD                                                          G chord diagramGG   A chord diagramAA
You could be mine if you tried, all that you do is tell me lies
G chord diagramGG                            F#m chord diagramF#mF#m
 You think that love's a game,  but I don't feel the same
Em chord diagramEmEm                                      A chord diagramAA
  I should have known that I'll get the pain

Instrumental:

    D chord diagramDD
e|---------------5----|-------------5----|
B|--------8--------8--|------8--------8--|
G|------7-7--------7--|------7--------7--|
D|----7--------7------|----7------7------|
A|--5--------5--------|--5------5--------|
E|--------------------|------------------|

Verse 3:
D chord diagramDD                                              G chord diagramGG  A chord diagramAA
Ooh, love was true yesterday. I love you ev'ry way
G chord diagramGG                        F#m chord diagramF#mF#m
 I saw you standing there,  you gave me cause to stare
Em chord diagramEmEm                            A chord diagramAA
  And then knew I had to have you

Outro:

    D chord diagramDD
e|---------------5----|-------------5----|
B|--------8--------8--|------8--------8--|
G|------7-7--------7--|------7--------7--|
D|----7--------7------|----7------7------|
A|--5--------5--------|--5------5--------|
E|--------------------|------------------|

Am chord diagramAmAm/D chord diagramDD

Almost there ...

Sign in to get your own page with links to favourite songs and more. You are just one click away...

Login with Facebook Login with Google