Search tabs and chords

Search for song, artist or band

Log in

One click and you are in

Login with Facebook Login with Google

Why sign up and log in

Guitar Tabs Explorer
The Beatles guitar tabs for Something (Ver. 3)

Guitar tabs with lyrics

Intro:

e|-----5----7b8r---5----6---7-----8------------------------------------------|
B|---------------------------------------------------------------------------|
G|---------------------------------------------------------------------------|
D|---------------------------------------------------------------------------|
A|---------------------------------------------------------------------------|
E|---------------------------------------------------------------------------|

Verse:

  C chord diagramCC                        Csus7 chord diagramCsus7Csus7
Something in the way she moves
   C7 chord diagramC7C7                      F chord diagramFF
Attracts me like no other lover

e|---------------------------------------------------------------------------|
B|---------------------------------------------------------------------------|
G|---------------------------------------------------------------------------|
D|-----------------------------------3-----2---------------------------------|
A|---------------------------------------------------------------------------|
E|---------------------------------------------------------------------------|

   D7 chord diagramD7D7                      G chord diagramGG
Something in the way she woos me

e|--------------------------------------3---------------3--------------------|
B|-----------------------------------------1------------3--------------------|
G|----------------------------------2------------2/4-------------------------|
D|---------------------------------------------------------------------------|
A|---------------------------------------------------------------------------|
E|---------------------------------------------------------------------------|

Chorus 1:

    Don't want to leave her now
   Am chord diagramAmAm                             Amsus7
e|-----------------------------|---------------------------------------------|
B|-11-------11-----11----11----|---9-----9-----9-----9-----------------------|
G|-10-------10-----10----10----|---9-----9-----9-----9-----------------------|
D|-11-------11-----11----11----|---10----10----10----10----------------------|
A|-----------------------------|---------------------------------------------|
E|-----------------------------|---------------------------------------------|

You know I believe and how
  C chord diagramCC                             D7 chord diagramD7D7
e|--------------------------|------------------------------------------------|
B|---8-----8------8-----8---|---7----7----7----7-----------------------------|
G|---9-----9------9-----9---|---5----5----5----5-----------------------------|
D|---10----10-----10----10--|---7----7----7----7-----------------------------|
A|--------------------------|---5----5----5----5-----------------------------|
E|--------------------------|------------------------------------------------|

e|-----5----7b8r---5----6---7-----8------------------------------------------|
B|---------------------------------------------------------------------------|
G|---------------------------------------------------------------------------|
D|---------------------------------------------------------------------------|
A|---------------------------------------------------------------------------|
E|---------------------------------------------------------------------------|

Verse 2:

  C chord diagramCC                        Csus7 chord diagramCsus7Csus7
Somewhere in her smile she knows
   C7 chord diagramC7C7                       F chord diagramFF
That I don't need no other lover

e|---------------------------------------------------------------------------|
B|---------------------------------------------------------------------------|
G|---------------------------------------------------------------------------|
D|-----------------------------------3-----2---------------------------------|
A|---------------------------------------------------------------------------|
E|---------------------------------------------------------------------------|

   D7 chord diagramD7D7                             G chord diagramGG
Something in her style that shows me

e|--------------------------------------3---------------3--------------------|
B|-----------------------------------------1------------3--------------------|
G|-------------------------------- --2------------2/4------------------------|
D|---------------------------------------------------------------------------|
A|---------------------------------------------------------------------------|
E|---------------------------------------------------------------------------|

Chorus 2:

Don't want to leave her now
   Am chord diagramAmAm                             Amsus7
e|----------------------------|----------------------------------------------|
B|-11-------11-----11----11---|---9-----9-----9-----9------------------------|
G|-10-------10-----10----10---|---9-----9-----9-----9------------------------|
D|-11-------11-----11----11---|---10----10----10----10-----------------------|
A|----------------------------|----------------------------------------------|
E|----------------------------|----------------------------------------------|

You know I believe and how
  C chord diagramCC                             D7 chord diagramD7D7
e|---------------------------|-----------------------------------------------|
B|---8-----8------8-----8----|--7----7----7----7-----------------------------|
G|---9-----9------9-----9----|--5----5----5----5-----------------------------|
D|---10----10-----10----10---|--7----7----7----7-----------------------------|
A|---------------------------|--5----5----5----5-----------------------------|
E|---------------------------|-----------------------------------------------|

e|--5----7b8r----5----6----7----/9-------------------------------------------|
B|---------------------------------------------------------------------------|
G|---------------------------------------------------------------------------|
D|---------------------------------------------------------------------------|
A|---------------------------------------------------------------------------|
E|---------------------------------------------------------------------------|

Bridge:

A chord diagramAA               Asus7 chord diagramAsus7Asus7           A6 chord diagramA6A6       A chord diagramAA
  You're asking me will my love grow

e|---------------------------------------------------------------------------|
B|----------------2--------------2-------------------------------------------|
G|----------------1--------------2-------------------------------------------|
D|----------------2--------------4-------------------------------------------|
A|---------------------------------------------------------------------------|
E|---------------------------------------------------------------------------|

         D chord diagramDD    G chord diagramGG
I don't know, I don't know

e|---------------------------------------------------------------------------|
B|---------------------------------------------------------------------------|
G|--------------------------2--1--0------------------------------------------|
D|-----------------------------------4--3--2---------------------------------|
A|---------------------------------------------------------------------------|
E|---------------------------------------------------------------------------|

A chord diagramAA               Asus7 chord diagramAsus7Asus7           A6 chord diagramA6A6       A chord diagramAA
  You stick around now it may show

e|---------------------------------------------------------------------------|
B|----------------2--------------2-------------------------------------------|
G|----------------1--------------2-------------------------------------------|
D|----------------2--------------4-------------------------------------------|
A|---------------------------------------------------------------------------|
E|---------------------------------------------------------------------------|

         D chord diagramDD    G chord diagramGG
I don't know, I don't know

e|---------------------------------------------------------------------------|
B|--------------------------1--0---------------------------------------------|
G|--------------------------------2--0---------------------------------------|
D|--------------------------------------2--0---------------------------------|
A|---------------------------------------------------------------------------|
E|---------------------------------------------------------------------------|

Solo:

e|---------------|----------------------|-------------------|----------------|
B|---------------|----------------------|-------------------|---------13-13--|
G|---------12----|-------12b-12b13r ----|---------12h14--12-|--12/14---------|
D|---12h14----14-|--12h14----------14---|--12h14------------|----------------|
A|---------------|----------------------|-------------------|----------------|
E|---------------|----------------------|-------------------|----------------|

e|-----------------------------|-----------------------|---------------------|
B|--15--13----15b16r----13--10-|-----13--13----8-8-----|---------------7-7---|
G|-----------------------------|-/14--------/9---------|-------9\7--/7-------|
D|-----------------------------|--------------------7--|---------------------|
A|-----------------------------|-----------------------|---------------------|
E|-----------------------------|-----------------------|---------------------|

e|------------------------|------------12-11-10--|-------|------|------------|
B|-10b11r-10b11r-10b11r-8-|-8-12-11-10-----------|-------|------|------------|
G|------------------------|----------------------|--7N-5-|-7N-5-|-7N-5-------|
D|------------------------|----------------------|-------|------|------------|
A|------------------------|----------------------|-------|------|------------|
E|------------------------|----------------------|-------|------|------------|

e|--------8--10b--8h10--8--5-------------------5----7b8r---5----6---7-----8--|
B|----/10--------------------------------------------------------------------|
G|---------------------------------------------------------------------------|
D|---------------------------------------------------------------------------|
A|---------------------------------------------------------------------------|
E|---------------------------------------------------------------------------|

Verse 3:

  C chord diagramCC                        Csus7 chord diagramCsus7Csus7
Something in the way she knows
   C7 chord diagramC7C7                      F chord diagramFF
And all I have to do is think of her

e|---------------------------------------------------------------------------|
B|---------------------------------------------------------------------------|
G|---------------------------------------------------------------------------|
D|-----------------------------------3-----2---------------------------------|
A|---------------------------------------------------------------------------|
E|---------------------------------------------------------------------------|

   D7 chord diagramD7D7                      G chord diagramGG
Something in the things she shows me

e|--------------------------------------3---------------3--------------------|
B|-----------------------------------------1------------3--------------------|
G|----------------------------------2------------2/4-------------------------|
D|---------------------------------------------------------------------------|
A|---------------------------------------------------------------------------|
E|---------------------------------------------------------------------------|

Chorus:

Don't want to leave her now
   Am chord diagramAmAm                             Amsus7
e|---------------------------|-----------------------------------------------|
B|-10-------10-----10----10--|----9-----9-----9-----9------------------------|
G|--9--------9------9-----9--|----9-----9-----9-----9------------------------|
D|-10-------10-----10----10--|----10----10----10----10-----------------------|
A|---------------------------|-----------------------------------------------|
E|---------------------------|-----------------------------------------------|

You know I believe and how
  C chord diagramCC                             D7 chord diagramD7D7
e|---------------------------|-----------------------------------------------|
B|---8-----8------8-----8----|--7----7----7----7-----------------------------|
G|---9-----9------9-----9----|--5----5----5----5-----------------------------|
D|---10----10-----10----10---|--7----7----7----7-----------------------------|
A|---------------------------|--5----5----5----5-----------------------------|
E|---------------------------|-----------------------------------------------|
                                                               (or C chord diagramCC on 8)
e|---5--7b8r-5--6--7--9--|------------------|-5--7b8r--5--6--7--8--8---------|
B|-----------------------|---------14-13-12-|----------------------8---------|
G|-----------------------|-12p11------------|----------------------9---------|
D|-----------------------|------------------|----------------------10--------|
A|-----------------------|------------------|----------------------10--------|
E|-----------------------|------------------|----------------------8---------|

************************************

| h   Hammer-on
| p   Pull-off
| r   Release
| b   Bend
| br  Bend release
| /   Slide up
| \   Slide down
| N   Tremolo

Other versions of Something

SomethingChords
Something (Ver. 2)Chords
SomethingsChords
SomethingTabs
Something (Ver. 2)Tabs

Almost there ...

Sign in to get your own page with links to favourite songs and more. You are just one click away...

Login with Facebook Login with Google