Guitar Tabs Explorer
The Beatles bass tabs for Cant buy me love (Ver. 2)

Can't Buy Me Love bass tab


Be the first to rate


Ayreon77Author: Ayreon77

Can't Buy Me Love bass tab by The Beatles (Ver. 2)

"Can´t Buy Me Love" is a song credited to Lennon-McCartney but was written by Paul McCartney in 1964. It was released as a single and also included on the "A Hard Day´s Night" album from the same year.

Bass tabs

Print
  • Tuning: Standard tuning
  • Difficulty: Novice
-------------------------------------------------------------------
                     Artist - The Beatles
                    **********************
                   Song - Can`t Buy Me Love
                  **************************
               Album - A Hard Day`s Night (1964)
              ***********************************
                    Tabbed By - Ayreon77
                   **********************
-------------------------------------------------------------------
Tuning = Standard


CHORUS
*******
G|---------|---------|---------|---------|---------|---------|
D|---------|-7-7-7-7-|---------|-7-7-7-7-|---------|-5-5-5-5-|
A|-7-7-7-7-|---------|-7-7-7-7-|---------|-5-5-5-5-|---------|
E|---------|---------|---------|---------|---------|---------|


-----------------------------
00:11
VERSE 1
********
G|-----------------|-----------------|-----------------|-----------------|-----------|
D|-----------------|-----------------|-3-3-----3-3---3-|-----------------|-5-5---5-3-|
A|-3-3-----3-3-----|-3-3-----3-3-----|-----3-3-----3---|-3-3-----3-3-----|-----5-----|
E|-----3-3-----3-3-|-----3-3-----3-3-|-----------------|-----3-3-----3-3-|-----------|

00:26
G|---------|
D|-3-3-3-3-|
A|---------|
E|---------|


-----------------------------
00:27
VERSE 2
********
G|-----------------|-----------------|---------|-----------------|-----------------|-----------|
D|-----------------|-----------------|---------|-3-3-----3-3---3-|-----------------|-5-5---5-3-|
A|-3-3-----3-3---1-|-3-3-----3-3---1-|-3-3---3-|-----3-3-----3---|-3-3-----3-3---1-|-----5-----|
E|-----3-3-----3---|-----3-3-----3---|-----3---|-----------------|-----3-3-----3---|-----------|


G|---------|---------|
D|-3-3-3-3-|---------|
A|---------|-3-3-3-3-|
E|---------|---------|


-----------------------------
00:45
CHORUS
*******
G|---------|---------|---------|---------|---------|---------|---------|---------|
D|---------|-7-7-7-7-|---------|---------|---------|-7-7-7-7-|---------|-5-5-5-5-|
A|-7-7-7-7-|---------|-3-3---1-|-3-3---1-|-7-7-7-7-|---------|-5-5-5-5-|---------|
E|---------|---------|-----3---|-----3---|---------|---------|---------|---------|


-----------------------------
00:56
VERSE 3
********
G|------------------|------------------|-----------------|-----------------|-----------|
D|------------------|------------------|-3-3-----3-3---3-|-----------------|-5-5---5-3-|
A|-3-3---1--3-3---1-|-3-3---1--3-3---1-|-----3-3-----3---|-3-3-----3-3-----|-----5-----|
E|-----3--------3---|-----3--------3---|-----------------|-----3-3-----3-3-|-----------|

01:10
G|---------|-----------------|
D|-3-3-3-3-|-----------------|
A|---------|-3-3-----3-3---1-|
E|---------|-----3-3-----3---|


-----------------------------
01:15
SOLO
*****
G|------------------|------------------|----------------s-|-----------------|
D|------------------|------------------|-3-3-----3-3---3\-|-----------------|
A|-3-3---1--3-3---1-|-3-3------3-5-6-7-|-----3-3-----3----|-3-3---1-3-3---1-|
E|-----3--------3---|-----3-3----------|------------------|-----3-------3---|


G|-------|---------|-----------------|
D|-5-5---|-3-3---3-|-----------------|
A|-----5-|-----3---|-3-3-----3-3---1-|
E|-------|---------|-----3-3-----3---|


-----------------------------
01:31
CHORUS
*******
G|---------|---------|---------|----------|---------|---------|---------|---------|
D|---------|-7-7-7-7-|---------|--------s-|---------|-7-7-7-7-|---------|-5-5-5-5-|
A|-7-7---7-|---------|-3-3-----|-3-3---1\-|-7-7---7-|---------|-5-5-5-5-|---------|
E|-----7---|---------|-----3-3-|-----3----|-----7---|---------|---------|---------|


-----------------------------
01:43
VERSE 4
********
G|------------------|------------------|-----------------|-----------------|-----------|
D|------------------|------------------|-3-3-----3-3---3-|-----------------|-5-5---5-3-|
A|-3-3---1--3-3---1-|-3-3---1--3-3---1-|-----3-3-----3---|-3-3-----3-3-----|-----5-----|
E|-----3--------3---|-----3--------3---|-----------------|-----3-3-----3-3-|-----------|


G|---------|----------|
D|-3-3---3-|--------s-|
A|-----3---|-3-3---1\-|
E|---------|-----3----|


-----------------------------
02:00
CHORUS
*******
G|---------|---------|---------|---------|---------|---------|---------------|
D|---------|-7-7---7-|---------|-7-7---7-|---------|-5-5-5-5-|---------------|
A|-7-7---7-|-----7---|-7-7---7-|-----7---|-5-5-5-5-|---------|-3-3-----3~~~~-|
E|-----7---|---------|-----7---|---------|---------|---------|-----3-3-------|


ENJOY.............

Other versions of Can't Buy Me Love

- Can't buy me loveBass tabs

Comment this song and these bass tabs

Do you have corrections, comments on the bass tabs, thoughts about the song or a message to the author? Write them below.