Search tabs and chords

Search for song, artist or band

Log in

One click and you are in

Login with Facebook Login with Google

Why sign up and log in

Guitar Tabs Explorer
The Beatles guitar tabs for Here there and everywhere

Guitar tabs

This is my arrangement of "Here, There, and Everywhere" by
the Beatles. I decided to arrange this for solo classical
guitar because I love the melody, but can^Òt really do it
justice with my bass/baritone voice. I tried transposing
it to make it easier to sing, but it loses a lot of it^Òs
luster in lower keys, so here it is...

Here There and Everywhere
Music/lyrics: Lennon/McCartney
Arranged by: Courtney Babbidge (cbm7b5@yahoo.com)

4/4 time

Intro (rubato)

1 & 2 & 3 & 4 & (etc..)
|   |   |   |    |   |   |   |    |   |   |   |    |   |   |   |
| | | | | | | |  | | | | | | | |  | | | | | | | |  | | | | | | | |
----------------|----------------|----------------|----------------|
------------0---|3---0-----------|------------0---|3---0-----------|
0-------0-------|2-------0-------|--------0-------|----------------|
0-------0-------|--------3-------|5-------5-------|4-------5---4---|
2-------2-------|3-------3-------|6-------6-------|5---------------|
3-------3-------|1-------1-------|6-------6-------|----------------|

  |   |   |   |    |   |   |   |    |   |   |   |   |   |   |   |
  | | | | | | | |  | | | | | | | |  | | | | | | | | | | | | | | | |
||----------------|----5-3-----0---|---------------|------0--------|
||------------1---|0-3-------0---3-|------------1--|0-1-3---------0|
|*0-----------0---|2---------0-----|----0-------0--|2---------0-2--|
|*----0-----2---2-|----------------|----0-----2---2|---------------|
||--2---2-0-------|2-------3-------|--2---2-0------|2-------3------|
||3---------------|----------------|3--------------|---------------|

                                                   ________________
                                                  |1.              |
|   |   |   |    |   |   |   |    |   |   |   |    |   |   |   |
| | | | | | | |  | | | | | | | |  | | | | | | | |  | | | | | | | |
----------------|----------------|------2---0-----|----------------||
--1-0-0---------|0-1-0-0---------|----0-----2-----|----------------||
--2---------2---|2-----------2-0-|--2-----------2-|----2-------5-2*||
--2-------1---1-|2---------1-----|----------------|----2-----4----*||
--------2-------|--------2-------|--------0---0---|--3-----5-------||
2---------------|2---------------|0---------------|5-----5---------||

_______________
|2.
|   |   |   |     |   |   |   |   |   |   |   |    |   |   |   |
| | | | | | | |   | | | | | | | | | | | | | | | |  | | | | | | | |
----------------||--1------------|----------------|----------------|
--------------1-||3---3----------|1-3-4-1---------|3-----4-5-4-3---|
----2-----2-3---|*3---3-------5-3|--------2-2-3-5-|--3---------3---|
----2---0-------|*---------------|1-------4-------|----5---------5-|
--3-------------||1-----0---5----|3-------5-------|----5-----------|
5-----5---------||--------3------|----------------|3-------3-------|

                  _____
                 | -3- |
|   |   |   |    |   |   |   |    |   |   |   |    |   |   |   |
| | | | | | | |  | | | | | | | |  | | | | | | | |  | | | | | | | |
----------------|----------------|----5-3-----0---|----------------|
1-3-4-1---------|3--0--------1---|0-3-------0---3-|------------1---|
--------2-2-3-5-|4----0--0---0---|2---------0-----|----0-------0---|
1-------4-------|0---------2---2-|----------------|----0-----2---2-|
3-------5-------|--------0-------|2-------3-------|--2---2-0-------|
----------------|3---------------|----------------|3---------------|

|   |   |   |    |   |   |   |    |   |   |   |    |   |   |   |
| | | | | | | |  | | | | | | | |  | | | | | | | |  | | | | | | | |
------0---------|----------------|----------------|------2---0-----|
0-1-3---------0-|--1-0-0---------|0-1-0-0---------|----0-----2-----|
2---------0-2---|--2---------2---|2-----------2-0-|--2-----------2-|
----------------|--2-------1-----|2---------1-----|----------------|
2-------3-------|--------2-----2-|--------2-------|--------0---0---|
----------------|2---------------|2---------------|0---------------|

________________          _________________
|1.                       |2.
|   |   |   |              |   |   |   |    |   |   |   |
| | | | | | | |            | | | | | | | |  | | | | | | | |
-----------------||       |----------------|----------------|
-----------------||       |----------------|------------0---|
----2-----2-3-5-*||       |------2---------|0---0-------0---|
----2---0-------*||       |----2-------5-4-|----0-----2-----|
--3---3----------||       |--3-----5-5-----|--2-----0-----0-|
5----------------||       |5---------------|3-----3---------|

|   |   |   |    |   |   |   |    |   |   |   |    |   |   |   |
| | | | | | | |  | | | | | | | |  | | | | | | | |  | | | | | | | |
----------------|----------------|----2-3---------|---------------||
3---0-----------|------------0---|3-----------0---|---------------||
2-----0-----0---|0-------0---0---|2-----------0---|0--------------||
--0-------2---2-|----0-----2---2-|--0-------2---2-|0--------------||
2-------3-------|--2-----0-------|2-------3-------|2--------------||
----------------|3-----3---------|----------------|3--------------||

Other versions of Here There And Everywhere

Here there and everywhereChords

Almost there ...

Sign in to get your own page with links to favourite songs and more. You are just one click away...

Login with Facebook Login with Google