Log in

One click and you are in

Login with Facebook Login with Google

Why sign up and log in

Guitar Tabs Explorer
Bob Marley bass tabs for Get up stand up

Bass tabs

bob marley-get_up_stand_up.btab

TablEdited by Jan Bjorklund, Finland <jani_bjorklund@yahoo.se>
You are welcome to request for tabs!
Fingering and positions as suggested by TablEdit, please use common sense!

TablEdited by Jan Bjorklund

Tuning : E A D G 	Time Signature: 4/4

 |        |        |        |
|----------------------------------------------------------------|
|----------------------------------------------------------------|
|3---------3-----3-------3---------------------------------------|
|----------------------------------------------------------------|

 |        |        |        |
|----------0-----------------------------------------------------|
|----------------1---------------------------0---1-------0-------|
|----------------------------------------------------------------|
|----------------------------------------------------------------|

 |        |        |        |
|----------------------------------------------------------------|
|----------------------------------------------------------------|
|3---------3-----3-------3---------------------------------------|
|----------------------------------------------------------------|

 |        |        |        |
|----------------------------------------------------------------|
|----------------------------------------------------------------|
|------------------------------1---------------------------------|
|----------3---3-------------------------------------------------|

 |        |        |        |
|----------------------------------------------------------------|
|----------------------------------------------------------------|
|--3-------3-----3---------3-------------------------------------|
|----------------------------------------------------------------|

 |        |        |        |
|----------0-----------------------------------------------------|
|----------------1---------------------------0---1-------0-------|
|----------------------------------------------------------------|
|----------------------------------------------------------------|

 |        |        |        |
|----------------------------------------------------------------|
|----------------------------------------------------------------|
|3---------3-----3---------3-------------------------------------|
|----------------------------------------------------------------|

 |        |        |        |
|----------------------------------------------------------------|
|----------------------------------------------------------------|
|--------------------------------1-------------------------------|
|----------3---3-------------------------------------------------|

 |        |        |        |
|----------------------------------------------------------------|
|----------------------------------------------------------------|
|--3-------3-----3---------3-------------------------------------|
|----------------------------------------------------------------|

 |        |        |        |
|------------0---------------------------------------------------|
|----------------1---------------------------0---1---------0-----|
|----------------------------------------------------------------|
|----------------------------------------------------------------|

 |        |        |        |
|----------------------------------------------------------------|
|----------------------------------------------------------------|
|3---------3-----3---------3-------------------------------------|
|----------------------------------------------------------------|

 |        |        |        |
|----------------------------------------------------------------|
|----------------------------------------------------------------|
|------------------------------1---------------------------------|
|--------3-----3-------------------------------------------------|

 |        |        |        |
|----------------------------------------------------------------|
|----------------------------------------------------------------|
|3---------3-----3-------3---------------------------------------|
|----------------------------------------------------------------|

 |        |        |        |
|----------0-----------------------------------------------------|
|--------------1-----------------------------0---1---------0-----|
|----------------------------------------------------------------|
|----------------------------------------------------------------|

 |        |        |        |
|----------------------------------------------------------------|
|----------------------------------------------------------------|
|3---------3-----3-------3---------------------------------------|
|----------------------------------------------------------------|

 |        |        |        |
|----------------------------------------------------------------|
|----------------------------------------------------------------|
|--------------------------------1-------------------------------|
|----------3---3-------------------------------------------------|




............................................................

Almost there ...

Sign in to get your own page with links to favourite songs and more. You are just one click away...

Login with Facebook Login with Google