Log in

One click and you are in

Login with Facebook Login with Google

Why sign up and log in

Guitar Tabs Explorer
Umphreys Mcgee guitar tabs for Pequod

Guitar tabs

these are the chord shapes including melody and bass listen to the track to get rhythm

  E-11---------7------9-------6------7--------4-----2---------2---|
  B-12---------9------7-------7------9--------5-----0---------0---|
  G---------------------------------------------------------------|
  D-----------------------------------------------------------2---|
  A--------------------------(7)--------------7----------4--------|
  E-0----------9------7-------0------9--------0-----4--------(0)--|

second time through it repeats.......    this part (^) a few times
Here's another take...

The Pequod
 Tab by Kevin Concordia (concordi@uiuc.edu)
 Acoustic Guitar in Standard Tuning

 The Chord Shapes:

 |-11-7-9-6-7-4-2-2----|
 |--0-0-0-0-0-0-0-0----|
 |-11-8-9-6-8-4-3-3----|
 |------------2--------|
 |---------------------|
 |-12-9-7-0-9---4-0----|

 - For the first two chords, use your first finger
   on the high A chord diagramE MajorE string, middle finger on the A chord diagramG MajorG
   string, and ring on the low E.


|-11-11-11-7-------7-7-9-------9-9-6-------0-6-|
|--0--0--0-0---0-----0-0---0-----0-0---0-----0-|
|-11-11-11-8-----8---8-9-----9---9-6-----6---6-|
|----------------------------------------------|
|----------------------------------------------|
|-12---------9-----------7-----------0---------|

|-7-------7-7-4-------4-4-2-------2-|
|-0---0-----0-0---0-----0-0-----0---|
|-8-----8---8-4-----4---4-3---3-----|
|---------------2-------------------|
|-----------------------------------|
|---9-----------------------4-------|


|-----2-------2-------------2-----2-|
|---0-------0-------0-----0-----0---|
|-3-------3-------3-----3-----3-----|
|-----------------------------------|
|---------------4-------------------|
|-------4-------------0-------------|


|-11-11-11-7-------7--7-9-------9-9-6--------0-6-|
|--0--0--0-0---0------0-0---0-----0-0----0-----0-|
|-11-11-11-8-----8----8-9-----9---9-6------6---6-|
|------------------------------------------------|
|------------------------------------------------|
|-12---------9------------7------------0---------|


|-7-------7-7-4--------4-4-2-------2-----2-------2-------------2-----2-|
|-0---0-----0-0----0-----0-0-----0-----0-------0-------0-----0-----0---|
|-8-----8---8-4------4---4-3---3-----3-------3-------3-----3-----3-----|
|---------------2------------------------------------------------------|
|--------------------------------------------------4-------------------|
|---9------------------------4-------------4-------------0-------------|


|-------2-------------2-----2-------2-------------2-----2--11-11-11-|
|-----0-------0-----0-----0-------0-------0-----0-----0-----0--0--0-|
|---3-------3-----3-----3-------3-------3-----3-----3------11-11-11-|
|-------------------------------------------------------------------|
|---------4---------------------------4-----------------------------|
|-0-------------4-------------4-------------0--------------12-------|....and so on

Almost there ...

Sign in to get your own page with links to favourite songs and more. You are just one click away...

Login with Facebook Login with Google