Search tabs and chords

Search for song, artist or band

Log in

One click and you are in

Login with Facebook Login with Google

Why sign up and log in

Guitar Tabs Explorer
Ufo guitar tabs for Out in the street

Guitar tabs with lyrics

-------------------------------------------------------------------------------
                               Out In The Street - UFO
-------------------------------------------------------------------------------

UFO - Out In The Street
From the album: ?Force It? (1975)

Tabbed by: Bryan Graham

Tuning: Standard
VERSE 1
e|-------------------|---------------|
B|-------------------|---------------|
G|o-------7---------o|------7--------|
D|o--5----7----7----o|-5----7--------|
A|---5----5----7-----|-5----5--------|
E|---3---------5-----|-3-------------|


PRE-CHORUS
e|---------------------------------------------------|-----|
B|---------------------------------------------------|-----|
G|o--------------------------------------------7----o|-----|
D|o---5-7---7-7--7-5-7---7-7--7-5-7---7-7---5--7----o|-7---|
A|----5-7---7-7--7-5-7---7-7--7-5-7---7-7---5--5-----|-7---|
E|----3-5---5-5--5-3-5---5-5--5-3-5---5-5---3--------|-5---|
                                                       *1st & 3rd time

VERSE 2 & 3
e|----------------|-----------|
B|----------------|-----------|
G|------7---------|------7----|
D|-5----7----7----|-5----7----|
A|-5----5----7----|-5----5----|
E|-3---------5----|-3---------|

CHORUS
e|-------------------------------------|-----------------------|
B|-------------------------------------|-----------------------|
G|-5---------7----7-7--7-7-------5-----|-----------------------|
D|-5----5----7----7-7--7-7--3----5--5--|-5-7--7-7--7-5-7--7-7--|
A|-3----5----5----5-5--5-5--3----3--5--|-5-7--7-7--7-5-7--7-7--|
E|------3-------------------1-------3--|-3-5--5-5--5-3-5--5-5--|

e|-------------------------------------------|
B|-------------------------------------------|
G|-5---------7----7-7--7-7-------------------|
D|-5----5----7----7-7--7-7--3--3--5--5--7----|
A|-3----5----5----5-5--5-5--3--3--5--5--7----|
E|------3-------------------1--1--3--3--5----|


GUITAR SOLO
e|--------------------------------------------------------------------|
B|-17------19r17-15-17----------------------------------14-15-14------|
G|---------------------16br-14-----14-16-16br-14-----16---------------|
D|------------------------------16------------------------------------|
A|--------------------------------------------------------------------|
E|--------------------------------------------------------------------|

e|--------------------------------------------------------------------|
B|-15p14--------------------------------------------------------------|
G|-------16-14h15p14-----14-13----------------------------------------|
D|-------------------17--------14~----12p11-12p11----11---------------|
A|------------------------------------------------14----12~-----------|
E|--------------------------------------------------------------------|

e|-----------------------------------------------------------------------|
B|-------------------------------------------14-15-14h15p14----14-15-17--|
G|-------------------------------------14-16----------------16-----------|
D|----11-12-11h12p11----12-11-12-14-16-----------------------------------|
A|-12----------------14--------------------------------------------------|
E|-----------------------------------------------------------------------|

e|-14-15-17----19-19brp17-19\-------14-------------------------------|
B|-------------------------------------17-14-17~--15--17-------------|
G|------------------------------16b----------------------16br--14----|
D|-------------------------------------------------------------------|
A|-------------------------------------------------------------------|
E|-------------------------------------------------------------------|

e|-------------------------------------------------------------------|
B|-----------------------------17b-17b-17b-17brp15-17----------------|
G|----------------------------------------------------16brp14----14~-|
D|--16-14-----------------------------------------------------16-----|
A|--------17-16~---15-13-13------------------------------------------|
E|-------------------------------------------------------------------|

e|------17----------17-------------17----21br--17-20-17h19p17-----17------|
B|---------17-20b------20-17-20b------17----------------------20b----20b--|
G|--19--------------------------------------------------------------------|
D|------------------------------------------------------------------------|
A|---------------------------------------------------~--------------------|
E|------------------------------------------------------------------------|

e|--17-----------17-------------------------------------------------------|
B|-----20-17--------20-17-------------------------------------------------|
G|-----------19b----------20brp17----19-17--------------------------------|
D|--------------------------------19-------19-17h19p17----17--------------|
A|-----------------------------------------------------19----18-17-15-----|
E|--------------------------------------------------------------------17~-|

e|---------------------------------------------------10p9p7-9----7--------|
B|-----13-15--------------------------------------10----------10---8------|
G|-/15-------14~---12--------------------------7b-------------------------|
D|--------------------13-12-10--------------------------------------------|
A|-----------------------------12~--10-12~--------------------------------|
E|------------------------------------------------------------------------|

e|-10-7-9----7------------------------------------------------------------|
B|--------10---8---8-7----------------------------------------------------|
G|---------------9-----9---7brp5----------5-4-5-4h5p4---4-----------------|
D|-------------------------------7----5-7-------------7---5---------------|
A|----------------------------------------------------------7-6-5-3-------|
E|------------------------------------------------------------------5~----|

e|----5------------------------------------------------------|
B|------8p5----------------------19-17--------19-17----------|
G|-7b-------7brp5----7-5b--------------18-16b-------16br-----|
D|----------------7-------7--7~--------------------------19--|
A|-----------------------------------------------------------|
E|-----------------------------------------------------------|

e|-------------20---------------17-------------------------------------|
B|-19b-19b-19b----19br-17----------20-17-------------------------------|
G|--------------------------19b----------19brp17----17-19-19brp17-19b~-|
D|-----------------------------------------------19--------------------|
A|---------------------------------------------------------------------|
E|---------------------------------------------------------------------|


OUTRO
e|---------------------------|--------------|
B|---------------------------|--------------|
G|o------7------------------o|-----7--------|
D|o--5---7---7---0h2p0---0--o|-5---7---7----|
A|---5---5---7---------3-----|-5---5---7----|
E|---3-------5---------------|-3-------5----|


VERSE 1
PRE-CHORUS
VERSE 2
PRE-CHORUS
CHORUS
GUITAR SOLO
CHORUS
VERSE 3
PRE-CHORUS
OUTRO


Lady love to hang on
Played it like a real intellectual
Sweet sister you?re still shaking
And your tragedy is never ending
Silver shoes you?re wearing
Every window that you?ve ever stared in

Over my head
Over my head

Sidewalks of the city
Every theater that you?ve ever played
Your comic book impersonations
Louise Fazenda and Buster Keaton

Over my head
So it?s all

Out in the streets for just one more matinee
Yes your vaudeville carries on
So put a smile in front your man can see
Yes your vaudeville carries on



**************************
Key

b  = Bend
br = Bend and release
h  = Hammer on
p  = Pull off
/  = Slide up
\  = Slide down
~  = Vibrato
x  = Mute Note

Almost there ...

Sign in to get your own page with links to favourite songs and more. You are just one click away...

Login with Facebook Login with Google