Search tabs and chords

Search for song, artist or band

Log in

One click and you are in

Login with Facebook Login with Google

Why sign up and log in

Guitar Tabs Explorer
Ufo guitar tabs for Love lost love

Guitar tabs with lyrics

Key: A chord diagramAA

NTRO:

  Gtr. 1 [Rhy. Fig 1]                                     End Rhy. Fig. 1
E|-----------------|-----------------|-----------------|-----------------|
B|-----------------|-----------------|-----------------|-----------------|
G|-7---7-------7---|-----------------|-7---7-------7---|-----------------|
D|-7---7---5---7---|-7-----7---7--7--|-7---7---5---7---|-7---7-----5--7--|
A|-5---5---5---5---|-7-----7---7--7--|-5---5---5---5---|-7---7-----5--7--|
E|---------3-------|-5-----5---5--5--|---------3-------|-5---5-----3--5--|

  Gtr. 2
E|-----19p17------------------|----------------17------------|
B|-----------20-19~--15-17b---|-17~-----15-17b----17b--17~---|
G|----------------------------|------------------------------|
D|----------------------------|------------------------------|
A|----------------------------|------------------------------|
E|----------------------------|------------------------------|

E|------------15----14--------|------------------------------|
B|-15~--15--------------17-15-|------------------------------|
G|---------16-----------------|-14~-----12p11-12p11----------|
D|----------------------------|----------------------12------|
A|----------------------------|-------------------------12~--|
E|----------------------------|------------------------------|

E|-----15p14-----17--15p14----|------------------------------|
B|-----------15------------15-|------------15-17-17brp15-17~-|
G|----------------------------|-14~----/17-------------------|
D|----------------------------|------------------------------|
A|----------------------------|------------------------------|
E|----------------------------|------------------------------|

E|----------------------------|------------------------------|
B|----------14-15-------------|------------------------------|
G|-------15-------16----------|----------------14------------|
D|----16-------------16-14-12-|-14~---12-14/16----16~--14-12-|
A|----------------------------|------------------------------|
E|----------------------------|------------------------------|

VERSE 1:

  Gtr. 1 [Rhy. Fig. 2]
E|---------------------------|-----------------------------|
B|---------------------------|-----------------------------|
G|-7--7--x-x--x-7--7--x-x--x-|-----------------------------|
D|-7--7--x-x--x-7--7--x-x--x-|-5--5--x-x--x-5--5-----------|
A|-5--5--x-x--x-5--5--x-x--x-|-5--5--x-x--x-5--5--0h2p0--0-|
E|---------------------------|-3--3--x-x--x-3--3--------3--|
 |                           |
 | Gtr. 2                    |
E|---------------------------|
B|---------------------------|
G|-------(1st time only)-----|
D|-12~-----------------------|
A|---------------------------|
E|---------------------------|

  Gtr. 1                                      End Rhy. Fig. 2
E|---------------------------|-------------------------------|
B|---------------------------|-------------------------------|
G|-7--7--x-x--x-7--7--x-x--x-|-------------------------------|
D|-7--7--x-x--x-7--7--x-x--x-|-5--5--x-x--x------------------|
A|-5--5--x-x--x-5--5--x-x--x-|-5--5--x-x--x-5h7p5-5h7p5--5-7-|
E|---------------------------|-3--3--x-x--x------5-----5-----|

Saturday night, we're all on the lookout for some thrills
Try to catch the band's last song
Backstage pass, really showin? out
Feel that's where I belong


BRIDGE:

  Gtr. 1 w/ Rhy. Fig. 1

  Gtr. 2
E|-------------------------|------------------------|
B|-------15-17b--17b--17~--|-----15-17--------------|
G|----14-------------------|-----------14~----12-14-|
D|-------------------------|------------------------|
A|-------------------------|------------------------|
E|-------------------------|------------------------|

E|-------------------------|------------------------------------|
B|-------------------------|------------------------------------|
G|------------14b---14b----|-14~---12-14------------------------|
D|-15br--12----------------|-------------15br-12----------------|
A|-------------------------|---------------------15-14-12-------|
E|-------------------------|------------------------------14-12-|


VERSE 2:

  Gtr. 1 w/ Rhy. Fig. 2

  Gtr. 2
E|----------------------------|
B|----------------------------|
G|------(1st time only)-------|
D|----------------------------|
A|----------------------------|
E|-10~------------------------|

Sitting down with the all the big stars at the bar
I really have a rock vocation
Monopede mania, schizophrenia
Rise to any situation


CHORUS:

  Gtr. 1 [Rhy. Fig. 3]                                    End Rhy. Fig. 3
E|-----------------|-----------------|-----------------|-----------------|
B|-----------------|-----------------|-----------------|-----------------|
G|-7--7------------|-----------------|-7--7------------|-----------------|
D|-7--7----7--7----|-5--5----5--5----|-7--7----7--7----|-5--5----5--5--7-|
A|-5--5----7--7----|-5--5----5--5----|-5--5----7--7----|-5--5----5--5--7-|
E|---------5--5----|-3--3----3--3----|---------5--5----|-3--3----3--3--5-|

Love oh lost love
Where will you go
When the show is over
Nobody wants to know


BRIDGE:

  Gtr. 1 w/ Rhy Fig. 1

We need to feel something that's real
Cause you're losing from the start
So be careful with your heart


GUITAR SOLO:

  Gtr. 1 w/ Rhy. Fig. 2

  Gtr. 2
E|----------------------------------|---------------------------------|
B|-9p8-----9~--9p8------------9-----|-10b-----8-10--------------------|
G|-----10----------10b---7~-----10--|---------------9br--7---7-9-7~---|
D|----------------------------------|----------------------9----------|
A|----------------------------------|---------------------------------|
E|----------------------------------|---------------------------------|

E|----------------------------------|
B|----------------------------------|
G|-------------------7-9--9brp7-9-7-|
D|---------------7-9----------------|
A|-8-9----8-9-11--------------------|
E|-----11---------------------------|

E|-------10---10------------------------------|
B|-----10--12b---13p10------------------------|
G|-/11b---------------12brp10-12-10b----------|
D|----------------------------------12-10-12~-|
A|--------------------------------------------|
E|--------------------------------------------|


E|--------10---10---10----10-10-------------|
B|-8----10--13b--------13b------13-10-10h12-|
G|---12b---------12b------------------------|
D|------------------------------------------|
A|------------------------------------------|
E|------------------------------------------|


E|----10-12br-10------------------------------|
B|-12-----------13-12-10----------------10-12-|
G|-----------------------12-10-11--10-11------|
D|-------------------------------12-----------|
A|--------------------------------------------|
E|--------------------------------------------|



E|-10-12-13-10-17br---15-17-15---------------|
B|-----------------------------17br-15-17-15-|
G|-------------------------------------------|
D|-------------------------------------------|
A|-------------------------------------------|
E|-------------------------------------------|


E|---------------------------------------------|
B|----------------15-17-18-17-15-19br---15-17--|
G|-15-16----15-16------------------------------|
D|-------17------------------------------------|
A|---------------------------------------------|
E|---------------------------------------------|


BRIDGE:

  Gtr. 1 w/ Rhy. Fig. 1

  Gtr. 2
E|------------------------|
B|-15~--------------------|
G|-----(1st time only)----|
D|------------------------|
A|------------------------|
E|------------------------|


VERSE 3:

  Gtr. 1 w/ Rhy. Fig. 2

Partners in the next bed and they're dancing cheek to cheek
Can't understand their highbrow conversation
Yes, you're pretty, who needs a pretty face
With a hot lip reputation

[Repeat Chorus]

[Repeat Intro]

OUTRO:

   Gtr. 1
E|---------------------------|---------------------------------|
B|---------------------------|---------------------------------|
G|-------------7----7--------|-5----5--------------------------|
D|-8----8------7----7--------|-5----5--------8-----------------|
A|-8----8------5----5--------|-3----3--------8-----------------|
E|-6----6--------------------|---------------6-----------------|
 |                           |                                 |
 | Gtr. 2                    |                                 |
E|---------------------------|---------------------------------|
B|----------18---------------|---------------------------------|
G|-17b--17b----17b--19-17----|-17~--19-17----------------------|
D|------------------------19-|------------19-17-15h17p15-------|
A|---------------------------|---------------------------17-15-|
E|---------------------------|---------------------------------|

   Gtr. 1
E|---------------------------|
B|---------------------------|
G|-7-------------------------|
D|-7-------------------------|
A|-5-------------------------|
E|---------------------------|
 |                           |
 | Gtr. 2                    |
E|---------------------------|
B|---------------------------|
G|-17b~----------------------|
D|---------------------------|
A|---------------------------|
E|---------------------------|


That?s all folks!


**************************
Key

b  = Bend
br = Bend and release
h  = Hammer on
p  = Pull off
/  = Slide up
\  = Slide down
~  = Vibrato

Almost there ...

Sign in to get your own page with links to favourite songs and more. You are just one click away...

Login with Facebook Login with Google