Guitar Tabs Explorer
U2 guitar tabs for Yahweh

Yahweh tab


Be the first to rate

Jamplay guitar lessons

Yahweh tab by U2

Guitar tabs

Print

Tuning: Standard (E chord diagramEE A chord diagramAA D chord diagramDD G chord diagramGG B chord diagramBB E chord diagramEE)

Key: C chord diagramCC

Difficulty: Novice

Use Delay Effect near 400ms to play this song.

Intro:

e|------3-----3---------|---3-----3---------|---3-----3------3---3-----------|
B|----3-----3---3--5--3-|-------3---3--5--3-|-------3---3--5---5---3---------|
G|--0-----0-------------|-0---0-------------|-0---0--------------------------|
D|----------------------|-------------------|--------------------------------|
A|----------------------|-------------------|--------------------------------|
E|----------------------|-------------------|--------------------------------|

e|------3-----3---------|---3-----3---------|---3-----3------5---5-----------|
B|----3-----3---3--5--3-|-------3---3--5--3-|-------3---3--5---5---5---------|
G|--0-----0-------------|-0---0-------------|-0---0--------------------------|
D|----------------------|-------------------|--------------------------------|
A|----------------------|-------------------|--------------------------------|
E|----------------------|-------------------|--------------------------------|

Verse 1:

e|--------------|--------------|--------------|------------------------------|
B|--------------|--------------|--------------|------------------------------|
G|--5--5--5--5--|--5--5--5--5--|--5--5--5--5--|-5--5--7--9-------------------|
D|--x--x--x--x--|--x--x--x--x--|--x--x--x--x--|-x--x--x--x-------------------|(12x)
A|--3--3--3--3--|--3--3--3--3--|--3--3--3--3--|-3--3--5--7-------------------|
E|--------------|--------------|--------------|------------------------------|

Chorus:
e|----8-----------------8----------------------------------------------------|
B|--8---8----10~--8---8---8----10~--8--10--8--10-----------------------------|
G|--------9---------9-------9------------------------------------------------|
D|---------------------------------------------------------------------------| (3x)
A|---------------------------------------------------------------------------|
E|---------------------------------------------------------------------------|

e|----8----------------------------------------------------------------------|
B|--8---8----10~--8----------------------------------------------------------|
G|--------9---------9--------------------------------------------------------|
D|---------------------------------------------------------------------------|
A|---------------------------------------------------------------------------|
E|---------------------------------------------------------------------------|

Verse 2:

e|--------------|--------------|--------------|------------------------------|
B|--------------|--------------|--------------|------------------------------|
G|--5--5--5--5--|--5--5--5--5--|--5--5--5--5--|-5--5--7--9-------------------|
D|--x--x--x--x--|--x--x--x--x--|--x--x--x--x--|-x--x--x--x-------------------|(8x)
A|--3--3--3--3--|--3--3--3--3--|--3--3--3--3--|-3--3--5--7-------------------|
E|--------------|--------------|--------------|------------------------------|

Chorus:

e|----8-----------------8----------------------------------------------------|
B|--8---8----10~--8---8---8----10~--8--10--8--10-----------------------------|
G|--------9---------9-------9------------------------------------------------|
D|---------------------------------------------------------------------------| (3x)
A|---------------------------------------------------------------------------|
E|---------------------------------------------------------------------------|

e|----8----------------------------------------------------------------------|
B|--8---8----10~--8----------------------------------------------------------|
G|--------9---------9--------------------------------------------------------|
D|---------------------------------------------------------------------------|
A|---------------------------------------------------------------------------|
E|---------------------------------------------------------------------------|

Bridge:

e|--12*----------------------------------------------------------------------|
B|--------12*----------------------------------------------------------------|
G|--------------12*----------------------------------------------------------|
D|--------------------12*----------------------------------------------------|
A|---------------------------------------------------------------------------|
E|---------------------------------------------------------------------------|

e|--12*----------------------------------------------------------------------|
B|------12*---------12*------------------------------------------------------|
G|----------12*---------12*-----12*------------------------------------------|
D|--------------12*---------12*----------------------------------------------|
A|---------------------------------------------------------------------------|
E|---------------------------------------------------------------------------|


e|----0-----0---0-----|-3--3--3--5--5--5--7--7--7-|-8--8--8--10--10--10--10--|
B|------1---------1---|---------------------------|--------------------------|
G|--0-----0---0-----0-|---------------------------|--------------------------|
D|--------------------|---------------------------|--------------------------|
A|--------------------|---------------------------|--------------------------|
E|--------------------|---------------------------|--------------------------|


e|--10--10-|-12--13--12--13--12--13--12--13-|-12--13--12--13--12--13--12\8---|
B|---------|--------------------------------|--------------------------------|
G|---------|--------------------------------|--------------------------------|
D|---------|--------------------------------|--------------------------------|
A|---------|--------------------------------|--------------------------------|
E|---------|--------------------------------|--------------------------------|

Chorus:

e|----8-----------------8----------------------------------------------------|
B|--8---8----10~--8---8---8----10~--8--10--8--10-----------------------------|
G|--------9---------9-------9------------------------------------------------|
D|---------------------------------------------------------------------------| (3x)
A|---------------------------------------------------------------------------|
E|---------------------------------------------------------------------------|


e|----8----------------------------------------------------------------------|
B|--8---8----10~--8----------------------------------------------------------|
G|--------9---------9--------------------------------------------------------|
D|---------------------------------------------------------------------------|
A|---------------------------------------------------------------------------|
E|---------------------------------------------------------------------------|

Instrumental and Verse 3:

e|------3-----3---3-------3-----3---3-------3-----3---3--------5-----5---5---|
B|----3---3-----3-------5---5-----5-------3---3-----3--------5---5-----5-----|
G|--0-------0---------0-------0---------0--------0---------2-------2---------|
D|---------------------------------------------------------------------------| (5x)
A|---------------------------------------------------------------------------|
E|---------------------------------------------------------------------------|


e|------8-----8-----|-----8-----8-----|-----8-----8-----|-----8-----8--------|
B|----8-----8-----8-|---8-----8-----8-|---8-----8-----8-|---8-----8-----8----|
G|--5-----5-----5---|-5-----5-----5---|-5-----5-----5---|-5-----5-----5------|
D|------------------|-----------------|-----------------|--------------------|
A|------------------|-----------------|-----------------|--------------------|
E|------------------|-----------------|-----------------|--------------------|

e|------8-----8-----|-----8-----8-------8~-|---------------------------------|
B|----8-----8-----8-|---8-----8-----8---8~-|---------------------------------|
G|--5-----5-----5---|-5-----5-----5-----5~-|---------------------------------|
D|------------------|----------------------|---------------------------------|
A|------------------|----------------------|---------------------------------|
E|------------------|----------------------|---------------------------------|

************************************

| x   Dead note
| (n) Ghost note
| \   Slide down
| ~   Vibrato

************************************

Other versions of Yahweh

- YahwehChords

Comment this song and these guitar tabs

Do you have corrections, comments on the guitar tabs, thoughts about the song or a message to the author? Write them below.