Search tabs and chords

Search for song, artist or band

Log in

One click and you are in

Login with Facebook Login with Google

Why sign up and log in

Guitar Tabs Explorer
U2 guitar tabs for Get out of your own way

Guitar tabs

Intro:

e|--10----10----10----10----|-10----10----10----10----|-9----9----9----9----|-10----10----10----10------|
B|-----10----10----10----10-|----10----10----10----10-|---10---10---10---10-|----10----10----10----10---|
G|--------------------------|-------------------------|---------------------|---------------------------| x4
D|--------------------------|-------------------------|---------------------|---------------------------|
A|--------------------------|-------------------------|---------------------|---------------------------|
E|--------------------------|-------------------------|---------------------|---------------------------|

Chorus 1: 1:06

e|----------------------------|-----------------------------------------------|
B|----------------------------|-----------------------------------------------|
G|--12----11----9--7-6-7-9-11-|-12----11----9--7-6-7-9--11--------------------|
D|----------------------------|-----------------------------------------------|
A|----------------------------|-----------------------------------------------|
E|----------------------------|-----------------------------------------------|

e|--10----10----10----10----|-10----10----10----10----|-9----9----9----9----|-10----10----10----10------|
B|-----10----10----10----10-|----10----10----10----10-|---10---10---10---10-|----10----10----10----10---|
G|--------------------------|-------------------------|---------------------|---------------------------|
D|--------------------------|-------------------------|---------------------|---------------------------|
A|--------------------------|-------------------------|---------------------|---------------------------|
E|--------------------------|-------------------------|---------------------|---------------------------|

e|--10----10----10----10----|-10----10----10----10----|-12----12----12----12----|
B|-----10----10----10----10-|----10----10----10----10-|----10----10----10----10-|
G|--------------------------|-------------------------|-------------------------|
D|--------------------------|-------------------------|-------------------------|
A|--------------------------|-------------------------|-------------------------|
E|--------------------------|-------------------------|-------------------------|

Pre-chorus: 1:50

e|------------------|-----------------|-----------------|-----------------------|
B|------------------|-----------------|-----------------|-----------------------|
G|--7---7---7---7---|-7---7---7---7---|-6---6---6---6---|-9-9-9-9-9--7----------|
D|----7---7---7---7-|---7---7---7---7-|---7---7---7---7-|-----------------------|
A|------------------|-----------------|-----------------|-----------------------|
E|------------------|-----------------|-----------------|-----------------------|

e|------------------|-----------------|-----------------|
B|------------------|-----------------|-----------------|
G|--7---7---7---7---|-7---7---7---7---|-6---6---6---6---|
D|----7---7---7---7-|---7---7---7---7-|---7---7---7---7-|
A|------------------|-----------------|-----------------|
E|------------------|-----------------|-----------------|

Chorus 2: 2:06

e|----------------------------|-----------------------------------------------|
B|----------------------------|-----------------------------------------------|
G|--12----11----9--7-6-7-9-11-|-12----11----9--7-6-7-9--11--------------------|
D|----------------------------|-----------------------------------------------|
A|----------------------------|-----------------------------------------------|
E|----------------------------|-----------------------------------------------|

e|--10----10----10----10----|-10----10----10----10----|-9----9----9----9----|-10----10----10----10------|
B|-----10----10----10----10-|----10----10----10----10-|---10---10---10---10-|----10----10----10----10---|
G|--------------------------|-------------------------|---------------------|---------------------------|
D|--------------------------|-------------------------|---------------------|---------------------------|
A|--------------------------|-------------------------|---------------------|---------------------------|
E|--------------------------|-------------------------|---------------------|---------------------------|

e|--10----10----10----10----|-10----10----10----10----|-12----12----12----12----|
B|-----10----10----10----10-|----10----10----10----10-|----10----10----10----10-|
G|--------------------------|-------------------------|-------------------------|
D|--------------------------|-------------------------|-------------------------|
A|--------------------------|-------------------------|-------------------------|
E|--------------------------|-------------------------|-------------------------|

Bridge: 2:35

e|--------------------------|-------------------------|------------------------|
B|--------------------------|-------------------------|------------------------|
G|--12----12----12----12----|-11----11----11----11----|-9--9--9-7-6-7-9-11-----| x2
D|-----12----12----12----12-|----12----12----12----12-|------------------------|
A|--------------------------|-------------------------|------------------------|
E|--------------------------|-------------------------|------------------------|

Solo: 2:49

e|------------------|-----------------|----------------------------------------|
B|------------------|-----------------|----------------------------------------|
G|-------9-11-11-11-|------9-11-11-11-|------11--14-14-12-11-12--11-9----------| x2
D|--9-12------------|-9-12------------|-9-12--------------------------12-------|
A|------------------|-----------------|----------------------------------------|
E|------------------|-----------------|----------------------------------------|

Chorus 3: 3:04

e|--------------------------|-------------------------|------------------------|
B|--------------------------|-------------------------|------------------------|
G|--12----12----12----12----|-11----11----11----11----|-9--9--9-7-6-7-9-11-----| x2
D|-----12----12----12----12-|----12----12----12----12-|------------------------|
A|--------------------------|-------------------------|------------------------|
E|--------------------------|-------------------------|------------------------|

e|--------------------------|-------------------------|------------------------|
B|--------------------------|-------------------------|------------------------|
G|--12----12----12----12----|-11----11----11----11----|-9--9--9--9--9----------|
D|-----12----12----12----12-|----12----12----12----12-|------------------------|
A|--------------------------|-------------------------|------------------------|
E|--------------------------|-------------------------|------------------------|

Other versions of Get Out Of Your Own Way

Get out of your own wayChords

Almost there ...

Sign in to get your own page with links to favourite songs and more. You are just one click away...

Login with Facebook Login with Google