Log in

One click and you are in

Login with Facebook Login with Google

Why sign up and log in

Guitar Tabs Explorer
U2 bass tabs for Elevation live

Bass tabs

ARTIST: U2

TITLE: ELEVATION (LIVE 360° TOUR)
BY: LUCA GEMMA


standard tuning



RIFF

G|----------|----------|----------|--------|
D|----------|----------|----------|--------|
A|7-77-7---5|7-77-7---5|7-77-7----|-------5|
E|------557-|------557-|------5575|2222557-|

G|----------|----------|----------|--------|
D|----------|----------|----------|--------|
A|7-77-7---5|7-77-7---5|7-77-7----|----3333|
E|------557-|------557-|------5575|2222----|

VERSE

G|----------|----------|----------|--------|
D|----------|----------|----------|--------|
A|----------|----------|----------|---7-5--|  X2
E|77--755--5|00--0--000|77--755--5|00----75|

G|--------|----------|--------|----------|
D|--------|-------5--|--------|-------5--|
A|--------|---57---75|--------|---57---75|  X2
E|77775555|00--------|77775555|00--------|

RIFF

G|----------|----------|----------|--------|
D|----------|----------|----------|--------|
A|7-77-7---5|7-77-7---5|7-77-7----|----3333|
E|------557-|------557-|------5575|2222----|

VERSE

G|----------|----------|----------|--------|
D|----------|----------|----------|--------|
A|----------|----------|----------|---7-5--|  X2
E|77--755--5|00--0--000|77--755--5|00----75|

G|--------|----------|--------|----------|
D|--------|-------5--|--------|-------5--|
A|--------|---57---75|--------|---57---75|  X2
E|77775555|00--------|77775555|00--------|

RIFF

G|----------|----------|----------|--------|
D|----------|----------|----------|--------|
A|7-77-7---5|7-77-7---5|7-77-7----|-------5|
E|------557-|------557-|------5575|2222557-|

G|----------|----------|----------|--------|
D|----------|----------|----------|--------|
A|7-77-7---5|7-77-7---5|7-77-7----|----3333|
E|------557-|------557-|------5575|2222----|

BRIDGE

G|--------|-----------|--------|---------|
D|--------|-----------|--------|---------|
A|--------|-----------|--------|---------|
E|0~~~----|--------12>|5~~~----|-------5<|

G|-----------|--------|--------|--------|
D|-----------|--------|--------|--------|
A|-----------|--------|--------|--------|
E|12~~~---12>|10~~~---|--------|5~~~----|

G|--------|--------|--------|
D|--------|--------|--------|
A|--------|--------|--------|
E|--------|--------|--------|

VERSE

G|--------|----------|--------|----------|
D|--------|-------5--|--------|-------5--|
A|--------|---57---75|--------|---57---75|  X2
E|77775555|00--------|77775555|00--------|


G|--------|-------------|--------|------------------------|
D|--------|-------------|--------|------------------------|
A|77776666|17'--19'--17'|77776666|17'17'17'17'17'17'17'17'|
E|--------|-------------|--------|------------------------|

G|--------|--------|------------|-------------|
D|--------|--------|------------|-------------|
A|77776666|55554444|33322210'10'|12'~~~-------|
E|--------|--------|------------|----------12>|

RIFF

G|----------|----------|----------|--------|
D|----------|----------|----------|--------|
A|7-77-7---5|7-77-7---5|7-77-7----|-------5|
E|------557-|------557-|------5575|2222557-|

G|----------|----------|----------|--------|
D|----------|----------|----------|--------|
A|7-77-7---5|7-77-7---5|7-77-7----|----3333|
E|------557-|------557-|------5575|2222----|

END

G|--------|--------|--------|
D|--------|--------|--------|
A|7~~~~---|77777777|777777~~|
E|--------|--------|--------|

Question, Comments, Corrections shall be sent to gemma.luca@gmail.com

Almost there ...

Sign in to get your own page with links to favourite songs and more. You are just one click away...

Login with Facebook Login with Google