Log in

One click and you are in

Login with Facebook Login with Google

Why sign up and log in

Guitar Tabs Explorer
U2 guitar chords for Do you feel loved

Guitar chords with lyrics

From shifter@hiline.net Fri May 16 08:32:20 1997




Group: U2


note: if you dowload this, download it and print it out on the

NOTEPAD!

                -----------------

transcribed by | Billy R. Waller |

                -----------------

This is yet another great song performed by U2.  It is real easy to

play but it sounds great.  To achieve almost the same sound as

U2, then you should definately us a Gibson Les Paul :).





chords used:



A chord diagramDmDm |--1--| A chord diagramC majorC |-----|

   |--3--|   |--1--|

   |--2--|   |-----|

   |-----|   |--2--|

   |-----|   |--3--|

   |-----|   |-----|


 A chord diagramFF |--1--| A chord diagramG MajorG |--3--|

   |--1--|   |-----|

   |--2--|   |-----|

   |--3--|   |-----|

   |--3--|   |--2--|

   |--1--|   |--3--|



Intro:



E----------------------------|

B----3---3-3-3---------3-----|

G--5---5---------5-5-2---2---| x8

D----------------------------|

A----------------------------|

E----------------------------|



Verse 1 :



take ..



you ..



take..



you ..

(start playing intro)

you ..



you ..



take ..



you ..

                       (stop)

if ..





Chorus :



         A chord diagramDmDm    A chord diagramC majorC           A chord diagramFF          A chord diagramG MajorG

DO ..x2





(Play Intro)





Same for the rest of the song!

Other versions of Do You Feel Loved

Do you feel lovedTabs

Almost there ...

Sign in to get your own page with links to favourite songs and more. You are just one click away...

Login with Facebook Login with Google