Search tabs and chords

Search for song, artist or band

Log in

One click and you are in

Login with Facebook Login with Google

Why sign up and log in

Guitar Tabs Explorer
Tool bass tabs for Fear inoculum

Bass tabs

Tuning: Drop D (D A D G)

Key: A

Difficulty: Intermediate

Intro: - Volume Swells

G|---------------------------------------------------------------------------|
D|--7----10---5-----7----10----5------7----10---5-----7----10----5-----------|
A|---------------------------------------------------------------------------|
D|---------------------------------------------------------------------------|
                                     5x

G|--9----12---7-----9----12----7------9----12---7-----9----12----7-----------|
D|--7----10---5-----7----10----5------7----10---5-----7----10----5-----------|
A|---------------------------------------------------------------------------|
D|---------------------------------------------------------------------------|

G|--9----12---7-----9----12----7------9----12---7-----9----12----14----------|
D|--7----10---5-----7----10----5------7----10---5-----7----10----12----------|
A|---------------------------------------------------------------------------|
D|---------------------------------------------------------------------------|

Verse 1:
*Eighth note delay + Flanger or Phaser
G|------------------------------------------------------------------------------------------|
D|-----7-----10-----5-7h-----7-----10-----5--7h-----7-----10-----5-7h-----7-----10-----5-7h-|
A|--0-----0------0--------0-----0------0---------0-----0------0--------0-----0------0-------|
D|------------------------------------------------------------------------------------------|
                                             3x

G|------------------------------------------------------------------------9--7--5-----------|
D|-----7-----10-----5-7h-----7-----10-----5--7h-----7-----10-----5-7h---------------5--5-7h-|
A|--0-----0------0--------0-----0------0---------0-----0------0--------0----0--0--0--0------|
D|------------------------------------------------------------------------------------------|

G|-----9-----9------7/9-----9-----9------7/9-----9-----9------7/9-----9-----9------7/9------|
D|-----7-----10-----5/7-----7-----10-----5/7-----7-----10-----5/7-----7-----10-----5/7------|
A|--0-----0------0--------0-----0------0---------0-----0------0----0-----0------0-----------|
D|------------------------------------------------------------------------------------------|

G|--------------------------------------------------------------------9--7--5------------------|
D|-----7-----7-----5-7h-----7-----7-----5-7h-----7-----7-----5-7h---------------5--5-7h-----|
A|--0-----0-----0--------0-----0-----0---------0----0-----0--------0----0--0--0--0----------|
D|------------------------------------------------------------------------------------------|

G|------------------------------------------------------------------------------------------|
D|-----7-----10-----5-7h-----7-----10-----5--7h-----7-----10-----5-7h-----7-----10-----5-7h-|
A|--0-----0------0--------0-----0------0---------0-----0------0--------0-----0------0-------|
D|------------------------------------------------------------------------------------------|

G|------------------------------------------------------------------------9--7--5-----------|
D|-----7-----10-----5-7h-----7-----10-----5--7h-----7-----10-----5-7h---------------5--5-7h-|
A|--0-----0------0--------0-----0------0---------0-----0------0--------0----0--0--0--0------|
D|------------------------------------------------------------------------------------------|

G|------------------------------------------------------------------------------------------|
D|-----7-----10-----5-7h-----7-----10-----5--7h-----7-----10-----5-7h-----7-----10-----5-7h-|
A|--0-----0------0--------0-----0------0---------0-----0------0--------0-----0------0-------|
D|------------------------------------------------------------------------------------------|

G|------------------------------------------------------------------------9--7--5-----------|
D|-----7-----10-----5-7h-----7-----10-----5--7h-----7-----10-----5-7h---------------5--5-7h-|
A|--0-----0------0--------0-----0------0---------0-----0------0--------0----0--0--0--0------|
D|------------------------------------------------------------------------------------------|

G|-----9-----14-----9p7-----9-----14-----9p7------9-----14------9p7----9-----14-----9p7-----|
D|-----7-----14-----7-------7-----14-----7--------7-----14------7------7-----14-----7-------|
A|--0-----0------0-------0-----0------0-------0------0------0-------0-----0------0----------|
D|------------------------------------------------------------------------------------------|

Pre-Chorus:
*Delay and Flanger/Chorus OFF

G|-------------------------------------------------------------------------------|
D|-----2p0----2p0----0-----2p0----2p0----0-----2p0----0----0-----2p0----0----0---|
A|--0------3------3-----0------3------3-----0------3----3-----0------3----3------|
D|-------------------------------------------------------------------------------|

Chorus:

G|----------------------------------------------------------------------------------|
D|--------0h2------0h2------0h2--------2p0------0h2------0h2------0h2--------2p0----|
A|--0--0-0---3--3-3-----------------0h3---0--0-0---3--3-3-----------------0h3-------|
D|--------------------3--3-3---5---5------------------------3--3-3---5---5----------|

G|----------------------------------------------------------------------------------|
D|--------0h2------0h2------0h2--------2p0------------------------------------------|
A|--0--0-0---3--3-3-----------------0h3---0--0-0---3--3-3---------------------------|
D|--------------------3--3-3---5---5------------------------0-----3--10--5--7-------|


(Tremolo Pedal Transition into Verse 2)
G|---9--7--5-----------|
D|------------5--5h7---|
A|---------------------|
D|---------------------|

Verse 2: - Volume Swells

G|---------------------------------------------------------------------------|
D|--7----10---5-----7----10----5------7----10---5-----7----10----5-----------|
A|---------------------------------------------------------------------------|
D|---------------------------------------------------------------------------|

G|--9----12---7-----9----12----7------9----12---7-----9----12----14----------|
D|--7----10---5-----7----10----5------7----10---5-----7----10----12----------|
A|---------------------------------------------------------------------------|
D|---------------------------------------------------------------------------|

Pre-Chorus 2:

G|---------------------------------------------------------------------------|
D|-----2p0----2p0----0-----2p0----0----0-----2p0----0----0-------------------|
A|--0------3------3-----0------3----3-----0------3----3----------------------|
D|---------------------------------------------------------------------------|

G|---------------------------------------------------------------------------|
D|-----2----0---0------2----0---0------2----0---0-----2----0---0-------------|
A|--0-----3---3-----0-----3---3-----0-----3---3----0-----3---3---------------|
D|---------------------------------------------------------------------------|
Chorus 2:

G|----------------------------------------------------------------------------------|
D|--------0h2------0h2------0h2--------2p0------0h2------0h2------0h2--------2p0----|
A|--0--0-0---3--3-3-----------------0h3---0--0-0---3--3-3-----------------0h3-------|
D|--------------------3--3-3---5---5------------------------3--3-3---5---5----------|

G|----------------------------------------------------------------------------------|
D|--------0h2------0h2------0h2--------2p0---------------------0--------------------|
A|--0--0-0---3--3-3-----------------0h3---0--0-0---3--3-3---------------------------|
D|--------------------3--3-3---5---5------------------------0-----3--10--5--7-------|

G|----------------------------------------------------------------------------------|
D|---------------0------------------------------------------------------------------|
A|----------------------------------------------------------------------------------|
D|--3--10--5--0------3--10--5--7----------------------------------------------------|

Bridge:

G|---------------------------------------------------------------------------|
D|--7----10---7----5h7-7---10---7---5h7-7---10---7---5h7-7---7---10---5h7-7--|
A|-----0----0----0-------0----0---0-------0----0---0-------0---0----0--------|
D|---------------------------------------------------------------------------|
                                      9x
G|---------------------------------------------------------------------------------|
D|--14---17---14----12h14-14---17---14----12---7---10---7----5h7-7--10---7--5------|
A|-----0----0-----0----------0----0-----0--------0----0---0--------0---0------7----|
D|---------------------------------------------------------------------------------|

Build-up:

G|------------------------------------------------------------------------------------|
D|------------------------------------------------------------------------------------|
A|-0-0-0-0----0-0-0-0-0-0-0-0-0-0----0-0-0-0----0-0-0-0----0-0-0-0-0-0-0-0---0-0-0-0--|
D|------------------------------------------------------------------------------------|
                                          4x

Climax:

G|-----0-------9------10--------------7h9-7---------0------9------10------------7h9-7-5--|
D|----------------10------------------------7-----------------10-------------------------|
A|--7--------------------------------------------7---------------------------------------|
D|--7-----10---------------10--12--7-------------7-----10--------------10--12--7---------|

G|------------9------10---------------7h9-7-5---------------9------10--------------7h9-7-5--|
D|---------------10--------------------------------------------10---------------------------|
A|--7---------------------------------------------7-----------------------------------------|
D|--7--12--10---------------10--12--7-------------7--12--10--------------10--12--7----------|

Breakdown:

G|--------------------------------------------------------------------------------------------------|
D|--------------------------------------------------------------------------------------------------|
A|--------------------------------------------------------------------------------------------------|
D|--7--0--3-3-3-3---3-3-3-0-3-3-3-3-3--3-3-3-3-3--10--5--7-7-7-7---7-7-7-7-7-7-7-7--7-7-7-7-7-7--0--|

G|--------------------------------------------------------------------------------------------------|
D|--------------------------------------------------------------------------------------------------|
A|--------------------------------------------------------------------------------------------------|
D|--3-3-3-3---3-3-3-0-3-3-3-3-3--3-3-3-3-3--10--5---------------------------------------------------|

G|---------------------------------------------------------------------------|
D|---------------------------------------------------------------------------|
A|---------------------------------------------------------------------------|
D|--0000000--000000000000000--0000000--0000000--000000000000000--0000000-----|
                                     2x
G|---------------------------------------------------------------------------|
D|---------------------------------------------------------------------------|
A|---------------------------------------------------------------------------|
D|--0-0-0-0--0-0-0-0-0-0-0-0--0-0-0-0--0-0-0-0--0-0-0-0-0-0-0-0--0-0-0-0-----|
                                     2x
Solo:

G|---------------------------------------------------------------------------|
D|-----0--------------1------0-------0---------------3---------10------------|
A|---------------------------------------------------------------------------|
D|--0----0-0-0-0-0--1----1--8--8---0----0-0-0-0-0--3-----3--10-----10--------|
                                     4x
Outro:

G|----------------------------------------------------------------------------|
D|----------------------------------------------------------------------------|
A|----------------------------------------------------------------------------|
D|--0-0-0-0---0-0-0-0-0-0-0-0---0-0-0-0---0-0-0-0--0-0-0-0-0-0-0-0---0-0-0-0--|

G|----------------------------------------------------------------------------|
D|----------------------------------------------------------------------------|
A|----------------------------------------------------------------------------|
D|--0000000---000000000000000---000000000000000---0000000--0000000------------|



************************************

| h  Hammer-on
| /  Slide up
| p  Pull-off
| x  Dead note

************************************

Almost there ...

Sign in to get your own page with links to favourite songs and more. You are just one click away...

Login with Facebook Login with Google