Log in

One click and you are in

Login with Facebook Login with Google

Why sign up and log in

Guitar Tabs Explorer
Toadies tabs for Tyler

Guitar tabs

Toadies - "Tyler"

Guitars tuned to standard tuning - EADGBE
~ = bend
^ = hammer-ons and pull offs
/ = slide
x = muted

Guitar 1 - Clark
intro(verse begins after the last seven)
------------------------------------------------
-------7---7---7---7---7---7---7---7------------
---------7---7---7---7---7---7---7---7----------
------------------------------------------------
------------------------------------------------
------------------------------------------------

Repeats
------------------------------------------------
-------7---7---7---7---7---7---7-----8----------
---------7---7---7---7---6---6---6/7---7--------
------------------------------------------------
------------------------------------------------
------------------------------------------------

Guitar 2 - Vaden


Verse(guitar 1 feedback played at the same time)
---------x---x---3---x0-------------------------
-------7/x---x---2---x2-xx4--44-----------------
-------7/x---x---3---x2-xx4--44-----------------
-------7/x---x---0---x2-xx4--44-----------------
-------5/x---x---0---x0-xx2--22-----------------
---------x---x----------xx----------------------

-------x---x---2---xxx2-xx3--33-----------------
-------x---x---2---xxx2-xx3--33-----------------
-------x---x---3---xxx3-xx4--44-----------------
-------x---x---4---xxx4-xx5--55-----------------
-------x---x---4---xxx4-xx5--55-----------------
-------x---x---2---xxx2-xx3--33-----------------

Played before Bridge I and Chorus begins
-------x---x---3---x0---------------------------
-------x---x---2---x2-xx4--44-------------------
-------x---x---3---x2-xx4--44-------------------
-------x---x---0---x2-xx4--44-------------------
-------x---x---0---x0-xx2--22-------------------
------------------------------------------------

-------x---x---2---xx22---33--------------------
-------x---x---2---xx22---33--------------------
-------x---x---3---xx33---44--------------------
-------x---x---4---xx4444/5555------------------
-------x---x---4---xx4444/5555------------------
-------x---x---2---xx2222/3333------------------

Guitars 1 & 2

Bridge I
-------3---3---3---0-00-------------------------
-------2---2---2---2-22--4-44-------------------
-------3---3---3---2-22--4-44-------------------
-------0---0---0---2-22--4-44-------------------
-------0---0---0---0-00--2-22-------------------
------------------------------------------------

-------2---2---2---xx22-xx3---------------------
-------2---2---2---xx22-xx3---------------------
-------3---3---3---xx33-xx4---------------------
-------4---4---4---xx44-xx5---------------------
-------4---4---4---xx44-xx5---------------------
-------2---2---2---xx22-xx3---------------------

-------xx3---3---3---0-00-----------------------
-------xx2---2---2---2-22--4-44-----------------
-------xx3---3---3---2-22--4-44-----------------
-------xx0---0---0---2-22--4-44-----------------
-------xx0---0---0---0-00--2-22-----------------
------------------------------------------------

-------2---2---2---xx22---33--------------------
-------2---2---2---xx22---33--------------------
-------3---3---3---xx33---44--------------------
-------4---4---4---xx4444/5555------------------
-------4---4---4---xx4444/5555------------------
-------2---2---2---xx2222/3333------------------


Chorus(strumming pattern varies)
-------3---3---3---0-00-------------------------
-------2---2---2---2-22--4-44-------------------
-------3---3---3---2-22--4-44-------------------
-------0---0---0---2-22--4-44-------------------
-------0---0---0---0-00--2-22-------------------
------------------------------------------------

-------2---2---2---xx22-xx3---------------------
-------2---2---2---xx22-xx3---------------------
-------3---3---3---xx33-xx4---------------------
-------4---4---4---xx44-xx5---------------------
-------4---4---4---xx44-xx5---------------------
-------2---2---2---xx22-xx3---------------------

Guitar 1


Bridge II(g. 2 feedback played at the same time)
-------9/---------------------------------------
------------3---3---2---3---2---2---2---2/3-----
--------------2---2---2---2---3---3---3-----4---
------------------------------------------------
------------------------------------------------
------------------------------------------------

------------------------------------------------
-------3---3---2---3---2---2---2/3---2/3--------
---------2---2---2---2---3---3-----4-----4------
------------------------------------------------
------------------------------------------------
------------------------------------------------

Almost there ...

Sign in to get your own page with links to favourite songs and more. You are just one click away...

Login with Facebook Login with Google