Guitar Tabs Explorer
Tlc guitar tabs for Take our time

Take Our Time tab


Be the first to rate

Take Our Time tab by Tlc

Guitar tabs with lyrics

Print

-------------------------------------------------------------------------------
                            TLC - Take Our Time
-------------------------------------------------------------------------------
Tabbed by:Piekid1998
E chord diagramEE-mail:

Tuning:Standard
RIFF 1
e|---------------------------------------------------------------------------|
B|--------------------------------------------------------------------14-----|
G|------------------18 16 -----13 14 13 11------------18 16---13 14 16---16~~|
D|----9--11---------------19------------------9 11----------19---------------|
A|---------------------------------------------------------------------------|
E|---------------------------------------------------------------------------|
RIFF 2
e|---------------------------------------------------------------------------|
B|---------------------------------------------------------------------------|
G|---------------------------------------------------------------------------|
D|---7h9p7-------------------------11----------------------------------------|
A|----------11 12 11---7h9--x2-----9-----------------------------------------|
E|---------------------------------------------------------------------------|

Chords - I DO NOT KNOW THE ACTUAL NAME FOR ONE OF THE CHORDS I PUT DOWN, SO I PUT A chord diagramAA QUESTION MARK NEXT TO IT,
FEEL FREE TO CORRECT ME :)

SAME CHORDS THROUGHOUT

Chord diagram:
F#m chord diagramF#mF#m   : 244222    Bm7 chord diagramBm7Bm7 : x24232
G# chord diagramG#G#/Ab chord diagramAbAb?: 446454
D chord diagramDD     : x00232

[Chorus]
F#m chord diagramF#mF#m                      G# chord diagramG#G#/Ab chord diagramAbAb?  D chord diagramDD
Let's take our time baby
F#m chord diagramF#mF#m               G# chord diagramG#G#/Ab chord diagramAbAb?  Bm7 chord diagramBm7Bm7
Love last forever
F#m chord diagramF#mF#m             G# chord diagramG#G#/Ab chord diagramAbAb? D chord diagramDD
Over and over
F#m chord diagramF#mF#m                 G# chord diagramG#G#/Ab chord diagramAbAb? Bm7 chord diagramBm7Bm7
We'll love together


Verse 1
Come here next to me
And let me make you high
No mistakes we will make
A chord diagramAA long time we will love

[Chorus]

Verse 2
Kiss me hold me tight
And let's get wet tonight
Happiness is pleasing you
So let me make you cry

[Chorus]


Slowly deep inside me
Hold me and kiss my body
Only you can make me
Oh so easy

[Chorus]

************************************

| /   slide up
| \   slide down
| h   hammer-on
| p   pull-off
| ~   vibrato
| +   harmonic
| x   Mute note
| b   Bend
| pb  Pre-bend
| br  Bend release
| pbr Pre-bend release
| brb Bend release bend

Comment this song and these guitar tabs

Do you have corrections, comments on the guitar tabs, thoughts about the song or a message to the author? Write them below.