Log in

One click and you are in

Login with Facebook Login with Google

Why sign up and log in

Guitar Tabs Explorer
Justin Timberlake guitar tabs for Not a bad thing

Guitar tabs

-------------------------------------------------------------------------------
                             Justin Timberlake - Not A chord diagramA majorA Bad Thing
-------------------------------------------------------------------------------
Tabbed by: MadScripter (http://madscripter.tumblr.com/)
E-mail: madscripter@hotmail.com
Submitter: Alfons
Chords: A chord diagramG MajorG - A chord diagramE minorEm - A chord diagramDsus2Dsus2
e-------3--------------------|
B-------3--------3-----------|
G----------------2-----------|
D-----------2----------------|
A-------2---2----------------|
E-------3--------------------|

Main melody:
e-------------------------------------------------------------------------------------|
B----8---8---7---10---8--------13---13---12---15--------------------------------------|
G--/7---7---7---7----7------/12---12---12---12---12-14--------------------------------|
D-------------------------------------------------------------------------------------|
A-------------------------------------------------------------------------------------|
E-------------------------------------------------------------------------------------|


Intro:
Main melody x3.


Intro / Verse / Pre-Chorus / Chorus:
Playing and strumming:
    A chord diagramG MajorG                  A chord diagramE minorEm    A chord diagramDsus2Dsus2
e---3-x-3-3-3-3-3-3-------------------------------3-------------|
B---3-x-3-3-3-3-3-3----------3-3-3-3-3------------3-------------|
G-----x----------------------2-2-2-2-2--------0h2---------------|
D-----x----------------2-x----------------0h2-------------------|
A-----x----------------2-x--------------------------------------|
E---3-x-3-3-3-3-3-3-------------------------------3-------------|
    A chord diagramD MajorD M U A chord diagramD MajorD U U A chord diagramD MajorD A chord diagramD MajorD    A chord diagramD MajorD M   A chord diagramD MajorD U U A chord diagramD MajorD A chord diagramD MajorD            A chord diagramD MajorD


Chorus:
"So don't act like it s a bad thing to fall in love with me..."
Main melody x4.


Bridge:
"No I won t fill your mind"..
A chord diagramG MajorG - A chord diagramDsus2Dsus2 - A chord diagramE minorEm

I'm aware the tab does not match the actual song a 100%, but it's good enough :).
I'll try to make it accurate when I have the time.

************************************
| /   slide up
| A chord diagramD MajorD = Down
| M = Mute
 |U = Up

Other versions of Not A Bad Thing

Not a bad thingChords
Not a bad thing (Ver. 2)Chords
Not a bad thing (Ver. 3)Chords

Almost there ...

Sign in to get your own page with links to favourite songs and more. You are just one click away...

Login with Facebook Login with Google