Search tabs and chords

Browse bands and artists

A B C D E F G H I J K L M N O P Q R S T U V W X Y Z #

Log in

[ Register here | Forgot password ]

Guitar Tabs Explorer
Print

Guitar chords with lyrics:

Soon chords by Snow Patrol

  • Tuning: Standard
Key: E


Chords
C       - x35050
Dadd4   - x57070
Bm7add4 - 7x7x70
C#m7    - 9x9x90
E       - 079x90 (optional: mute 6th string or don't play it)
Bm      - x24432
A       - x02220
E*      - 022100

Intro
C Dadd4 Bm7add4 C#m7 (x3)
C Dadd4 E
Chorus
C  Dadd4          Bm7add4    C#m7
Soon you'll not remember anything
    C    Dadd4                Bmadd4  C#m7
But then someday neither will I
  C      Dadd4     Bm7add4     C#m7
Tomorrow though is nothing to fear
        C           Dadd4     E
Because father it's always today
Verse
C  Dadd4   Bm7add4            C#m7
Life won't flash before your eyes
  C           Dadd4          Bm7add4   C#m7
Instead we'll fall away then melt like snow
    C      Dadd4     Bm7add4    C#m7
The secret storms of your wild youth
C               Dadd4               E
Now just gentle breezes, warm and faint

Interlude
C Dadd4 Bm7add4 C#m7 (x3)
C Dadd4 E

Chorus
C  Dadd4          Bm7add4    C#m7
Soon you'll not remember anything
    C    Dadd4                Bmadd4  C#m7
But then some day neither will I
  C      Dadd4     Bm7add4     C#m7
Tomorrow though has nothing to fear
        C           Dadd4     E
Because father it's always today
Bridge
         Bm           A           E*
I can't ride on your coattails again
       Bm         A              E*
Like I always did as a little boy
        Bm             A           E*
We are sand in all the old shores now
          Bm           A             E*
My whole hand hanging onto your thumb
           Bm           A          E*
There's a place in the palace of youth
       Bm        A                 E*
We can always be standing like that
       Bm                   A             E*
We can hide in there, just as we were then
                Bm           A
You're just my father and I Am just your son

Outro
      C Dadd4 Bm7add4 C#m7

      C Dadd4 Bm7add4 C#m7
Your son
      C Dadd4 Bm7add4 C#m7
Your son
      C Dadd4 Bm7add4 E
Your son



Piano part arranged for guitar:

    C               Dadd4             Bm7add4         C#m7
e||---------------0---------------0-|---------------0---------------0-||
B||-------0---3-----------0---3-----|-------0---3-----------0---3-----||
B||*--2---------------2-------------|-------------------2------------*||
B||*--------------------------------|---4----------------------------*|| (Play 3x)
B||---------------------------------|---------------------------------||
E||---------------------------------|---------------------------------||
    1   +   2   +   3   +   4   +     1   +   2   +   3   +   4   +

   C               Dadd4             E
e|---------------0---------------0-|---------------0---------------0-|
B|-------0---3-----------0---3-----|-------0---3-----------0---3-----|
G|---2---------------2-------------|---2---------------2-------------|
D|---------------------------------|---------------------------------|
A|---------------------------------|---------------------------------|
E|---------------------------------|---------------------------------|
   1   +   2   +   3   +   4   +     1   +   2   +   3   +   4   +

"Soon" is a song off of alternative rockers Snow Patrol's 2018 album "Wildness", their seventh studio album. "Soon" and the album was released on May 25, 2018.

Comments

Snow Patrol guitar chords for Soon