Log in

One click and you are in

Login with Facebook Login with Google

Why sign up and log in

Guitar Tabs Explorer
Slayer bass tabs for Dittohead

Bass tabs with lyrics

BASS TAB FOR DITTOHEAD
              ======================
              AS RECORDED BY SLAYER

           ================================
           TABED BY STORM@HADES.OMEN.COM.AU
           ================================

As promised, here is the bass tabs for dittohead as recorded by Slayer from
the Devine Intervention CD.
This should be right, but dont blame me if it aint.
Greeting to all Metalheads everywhere from Perth, Western Australia.

            DITTOHEAD
            =========

 FAST ROCK: 228
 Tune down half step

  G#5       G#5 A5 G5  A5  F#5
  >        >  >  >   >   >
 |---------------|--------------------|------------------||
4|---------------|--------------------|------------------||
4|---------------|--------------------|------------------||
 |--4------------|--4-----5--3-----5--|--2---------------||

DOUBLE TIME FEEL
1st, 2nd verses

 N.C         G5   F#5  N.C        Bb5   Ab5
|---------------------------------|---------------------------------|
|---------------------------------|---------------------------------|
|---------------------------------|---------------------------------|
|-0-0-0-0-0-0-0-0-0---3---0---2---|-0-0-0-0-0-0-0-0-0---6---0---4---|

 N.C         G5   F#5   N.C
|---------------------------------|---------------------------------|
|---------------------------------|---------------------------------|
|---------------------------------|---------------------------------|
|-0-0-0-0-0-0-0-0-0---3---0---2---|-4-4-4-4-4-4-5-5-2-2-2-2-2-2-2-2-|

           G5   F#5  N.C        Bb5   Ab5
|---------------------------------|---------------------------------|
|---------------------------------|---------------------------------|
|---------------------------------|---------------------------------|
|-0-0-0-0-0-0-0-0-0---3---0---2---|-0-0-0-0-0-0-0-0-0---6---0---4---|

 N.C         G5   F#5  N.C
|---------------------------------|---------------------------------|
|---------------------------------|---------------------------------|
|---------------------------------|---------------------------------|
|-0-0-0-0-0-0-0-0-0---3---0---2---|-4-4-4-4-4-4-5-5-2-2-2-2-2-2-2-2-|

           G5   F#5  N.C        Bb5   Ab5
|---------------------------------|---------------------------------|
|---------------------------------|---------------------------------|
|---------------------------------|---------------------------------|
|-0-0-0-0-0-0-0-0-0---3---0---2---|-0-0-0-0-0-0-0-0-0---6---0---4---|

 N.C         G5   F#5  N.C
|---------------------------------|---------------------------------|
|---------------------------------|---------------------------------|
|---------------------------------|---------------------------------|
|-0-0-0-0-0-0-0-0-0---3---0---2---|-4-4-4-4-4-4-5-5-2-2-2-2-2-2-2-2-|

           G5   F#5  N.C      Bb5 Bb5 Ab5 Ab5
|---------------------------------|---------------------------------|
|---------------------------------|---------------------------------|
|---------------------------------|---------------------------------|
|-0-0-0-0-0-0-0-0-0---3---0---2---|-0-0-0-0-0-0-0-0-0---6---0---4---|

 N.C         G5   F#5  N.C
|---------------------------------|---------------------------------|
|---------------------------------|---------------------------------|
|---------------------------------|---------------------------------|
|-0-0-0-0-0-0-0-0-0---3---0---2---|-4-4-4-4-4-4-5-5-3-3-3-3-3-3-5-5-|

                     (repeat prev two bars)
|---------------------------------|---------------|-/---------------||
|---------------------------------|--------------*|/---------------*||
|---------------------------------|--------------/|*---------------*||
|-2-2-2-2-2-2-5-5-1-1-1-1-1-1-1-1-|-------------/-|-----------------||

 N.C
|---------------------------------|---------------------------------|
|---------------------------------|---------------------------------|
|---------------------------------|---------------------------------|
|-4-4-4-4-4-4-5-5-3-3-3-3-3-3-5-5-|-2-2-2-2-2-2-5-5-1-1-1-1-1-1-1-1-|

                   end double time feel
|---------------------------------| |-----------------||
|---------------------------------| 2|-----------------||
|---------------------------------| 4|-----------------||
|-4-4-4-4-4-4-5-5-3-3-3-3-3-3-5-5-| |-2-2-2-2-2-2-5-5-||

Slower =180
 F5 E5        F5        E5          F5
 > >         >   >   >  > >           >  >  >
|---------|--------------------------|-----------------|-----------------|
|---------|--------------------------|-----------------|-----------------|
|---------|--------------------------|-----------------|-----------------|
|-1--0----|------------1--0--1--0--1-|-1-0-0-0-0-0-0-0-|-0-0-0-1-0-1-0-1-|
            p   p

          ----------------- -------------------
          |1. 2. 3.     |4.
 F5 E5          E5        F5
  > >           >  >  >     >  >
|------------------|-----------------|-----------------|
|*-----------------|----------------*|-----------------|
|*-----------------|----------------*|-----------------|
|--1-0-0-0-0-0-0-0-|-0-0-0-1-0-1-0-1-|-0-0-0-1-0-1-3-2-|

|------------------|-----------------|-----------------|-----------------|
|*-----------------|----------------*|-----------------|-----------------|
|*-1-----1-2-----0-|-1-----1-2------*|-2-----2-3-----1-|-2-----2-3-------|
|----3-2-----3-2---|---3-2-----3-2-1-|---4-3-----4-3---|---4-3-----4-3-2-|

|-----------------|-----------------||
|-----------------|-----------------||
|-2-----2-3-----1-|-2-----2-3---0-2-||
|---4-3-----4-3---|---4-3-----4-----||

Half time feel
Guitar solo 1
  N.C
|------------------|-----------------|-----------------|-----------------|
|*-----------------|-----------------|-----------------|-----------------|
|*-3-----------0-2-|-3-----------0-2-|-3-----------0-2-|-3---3-------0-2-|
|----0-0-0-0-0-----|---0-1-3-4-0-----|---0-0-0-0-0-----|---0---5-4-3-----|

                           -------------------
                           |1.
|-----------------|-----------------|-----------------|------------------|
|-----------------|-----------------|-----------------|-----------------*|
|-3-----------0-2-|-3-----------0-2-|-3-----------0-2-|-3---2-------0-2-*|
|---0-0-0-0-0-----|---0-1-3-4-0-----|---0-0-0-0-0-----|---0---4-3-2------|

------------------
|2.       F5
|-----------------|
|-----------------|
|-3---2-------1---|
|---0---4-3-2---1-|

         ----------------- ------------------
         |1. 2. 3.     |4. end half time feel
 F5 E5      |    F5    |    F5
 > >       |    >  >  > |    >  >  >
|-----------------|-----------------|-----------------||
|*----------------|----------------*|-----------------||
|*----------------|----------------*|-----------------||
|-1-0-0-0-0-0-0-0-|-0-0-0-1-0-1-0-1-|-0-0-0-1-0-1-0-1-||


  Slower = 138
 |-------------------|-------------------|-----------------------|
12|-------------------|-------------------|-----------------------|
8 |-------------------|-------------------|-----------------------|
 |---3---------------|-------------------|---5----6----7----8----|

 |--------------|--------------|--------------| |----------------|
6|--------------|--------------|--------------| 7|----------------|
8|--------------|--------------|--------------| 8|----------------|
 |----5----6----|----7----8----|--------------| |----------------|


 |-------------------| |----------------------||
9|-------------------| 4|----------------------||
8|-13----14----15----| 4|-16----16--15\13--13--||
 |-------------------| |----------------------||
                   sl

 Faster = 224, double time feel
 Guitar 2 solo
 N.C
|---------------------------------|-------------/------------|
|*--------------------------------|-----------*/-------------|
|*--------------------------------|-----------/*-------------|
|-0-0-0-0-0-0-0-0-0-0-0-0-0-0-0-0-|----------/---------------|

                ------------------------ ---------------
                |1. 2. 3.        |4.
 G5 N.C    G#5 N.C    | G5 N.C    G5 F#5 F5| G5   F#5 F5
|-------------------------------|------------------------|---------------|
|-------------------------------|-----------------------*|---------------|
|-------------------------------|-----------------------*|---------------|
|-3---0-0-0-0-0---4---0-0-0-0-0-|-3--0-0-0-0-0---3--2--1-|-3\----3--2--1-|


|----------------------------------|------------/--------|
|----------------------------------|----------*/---------|
|----------------------------------|----------/*---------|
|-0-0-0-0-0--0-0-0-0-0-0-0-0-0-0-0-|---------/-----------|

                ---------------------------
                |1. 2. 3.
 G5 N.C    G#5 N.C    | G5 N.C     G5 F#5 F5
|-------------------------------|---------------------------|
|-------------------------------|--------------------------*|
|-------------------------------|--------------------------*|
|-3---0-0-0-0-0---4---0-0-0-0-0-|-3---0-0-0-0-0---3---2---1-|

------------------------------
|4.
| G5 N.C     G5 F#5 F5
|-----------------------------||
|-----------------------------||
|-----------------------------||
|-3---0-0-0-0-0---3---2---1---||

 THE END!

Almost there ...

Sign in to get your own page with links to favourite songs and more. You are just one click away...

Login with Facebook Login with Google