Guitar Tabs Explorer
Sakura Gakuin guitar tabs for Verishuvi

Verishuvi tab


Be the first to rate


Klurps5Author: Klurps5

Jamplay guitar lessons

Verishuvi tab by Sakura Gakuin

Verishuvi was the second single to be released by Japanase all-girl band Sakura Gakuin. Verishuvi was released in 2012.

Guitar tabs with lyrics

Print
  • Tuning: Standard tuning
[Intro]

E|---------------------8----------8---|--------------------------------------------|
B|------8---10------------------------|-----10---------8-----10---------8----------|
G|-10---------------------------------|----------10----------------------------10--|
D|------------------------------------|--------------------------------------------|


E|------------------------------------|--------------------------------------------|
B|-10---8--------------------8--------|--------------------------------------------|
G|-----------10---9----10----------10-|--------------------7-----------------------|
D|------------------------------------|-10---7---8---10----------10----7----10-----|


E|------------------------------------|--------------------------------------------|
B|-------8-----10--------10--------10-|-8-----------8------10--------8-----------8-|
G|-10---------------------------------|------10------------------------------------|
D|------------------------------------|--------------------------------------------|


E|------------------------------------|--------------------------------------------|
B|-10---8--------------------8--------|--------------------------------------------|
G|-----------10---9----10----------10-|--------------------7-----------------------|
D|------------------------------------|-10---7---8---10----------10----7----10-----|


E|---------------------8----------8---|--------------------------------------------|
B|------8---10------------------------|-----10---------8-----10---------8----------|
G|-10---------------------------------|----------10----------------------------10--|
D|------------------------------------|--------------------------------------------|


E|------------------------------------|--------------------------------------------|
B|-10---------------------------------|----10--10----------------------------------|
G|------------------------------------|--------------------------------------------|  4X
D|-------------10----------12-----10--|-------------------10--------12/10----------|


F chord diagramFF           C chord diagramCC      A chord diagramAA  Dm chord diagramDmDm       Cm7 chord diagramCm7Cm7    F chord diagramFF
verishuVi shitemasu! Hibikiau wakuwaku
Bb chord diagramBbBb         Am chord diagramAmAm      Dm chord diagramDmDm  Gm chord diagramGmGm  Am chord diagramAmAm   Bb chord diagramBbBb     C chord diagramCC
Pi~nchi aseru kimochi. Nigerare ya shinai
F chord diagramFF         C chord diagramCC    A chord diagramAA   Dm chord diagramDmDm        Cm7 chord diagramCm7Cm7    F chord diagramFF
Dotabata dogimagi. Appu appu gekichin?
Bb chord diagramBbBb               Am chord diagramAmAm     Dm chord diagramDmDm Gm chord diagramGmGm      Am chord diagramAmAm     Bb chord diagramBbBb C chord diagramCC
Acchaccha! Me no mae da yo Yuuki dashite hora
   Dm chord diagramDmDm/F chord diagramFF         C# chord diagramC#C#(#5)                F chord diagramFF              Dm chord diagramDmDm
Saa te wo kakage Aruki dashitara Kinou no jibun ni `bai bai!!`
Bb chord diagramBbBb  Am chord diagramAmAm    Gm chord diagramGmGm  F chord diagramFF     Gm chord diagramGmGm         C chord diagramCC      F chord diagramFF
Ashita no mirai tomannai yume Mawaru yo

F chord diagramFF      C chord diagramCC/E chord diagramEE      Dm7 chord diagramDm7Dm7     C chord diagramCC Bb chord diagramBbBb    C chord diagramCC/E chord diagramEE      F chord diagramFF    C chord diagramCC
 Itsumono kaisatsu nukete  Maegami naosu no
F chord diagramFF       C chord diagramCC/E chord diagramEE       Dm7 chord diagramDm7Dm7      C chord diagramCC  Bb chord diagramBbBb       C chord diagramCC/E chord diagramEE    F chord diagramFF Fsus4 chord diagramFsus4Fsus4  F chord diagramFF
 Sono saki de dasshu shitara   Mata odeko zenkai

     Bb chord diagramBbBb        C chord diagramCC               Am chord diagramAmAm            Dm chord diagramDmDm
Shingou machi de Yokome de chirari Minna nanka sowasowa
  Bb chord diagramBbBb     Gm chord diagramGmGm                 C chord diagramCC
Itsumono aizu de kimari da ne

F chord diagramFF           C chord diagramCC      A chord diagramAA  Dm chord diagramDmDm          Cm7 chord diagramCm7Cm7    F chord diagramFF
Verishuvi shitemasu! Shiranpuuri wakuwaku
Bb chord diagramBbBb         Am chord diagramAmAm       Dm chord diagramDmDm   Gm chord diagramGmGm  Am chord diagramAmAm    Bb chord diagramBbBb   C chord diagramCC
Chotto ijiwaru shichau? Kimete no egao de
F chord diagramFF          C chord diagramCC    A chord diagramAA  Dm chord diagramDmDm       Cm7 chord diagramCm7Cm7     F chord diagramFF
Dotabata dogimagi Purupuru furuechau!?
Bb chord diagramBbBb               Am chord diagramAmAm      Dm chord diagramDmDm Gm chord diagramGmGm      Am chord diagramAmAm     Bb chord diagramBbBb C chord diagramCC
Yacchaccha! Barebare da yo Yuuki dashite hora
    Dm chord diagramDmDm/F chord diagramFF            C# chord diagramC#C#(#5)             F chord diagramFF                Dm chord diagramDmDm
Saa te wo kakage Aruki dashitara Nakimushi na yoru ni `bai bai!!`
Bb chord diagramBbBb Am chord diagramAmAm    Gm chord diagramGmGm   F chord diagramFF     Gm chord diagramGmGm            C chord diagramCC     F chord diagramFF
Sugao no mama de miageta sora wa Nani iro?

F chord diagramFF       C chord diagramCC/E chord diagramEE      Dm7 chord diagramDm7Dm7      C chord diagramCC Bb chord diagramBbBb      C chord diagramCC/E chord diagramEE     F chord diagramFF    C chord diagramCC
Futatsu kage boushi narabu Houkago sakamichi
F chord diagramFF        C chord diagramCC/E chord diagramEE     Dm7 chord diagramDm7Dm7    C chord diagramCC Bb chord diagramBbBb     C chord diagramCC/E chord diagramEE    Fsus4 chord diagramFsus4Fsus4 C chord diagramCC F chord diagramFF
Kaze ni sasowarete odoru Seifuku no sukaato

Bb chord diagramBbBb              C chord diagramCC                Am chord diagramAmAm             Dm chord diagramDmDm
Sasai na koto de Kenka wo shite mo Issho ni aruite kita
 Bb chord diagramBbBb        Gm chord diagramGmGm              C chord diagramCC
Totemo taisetsu na kono basho

F chord diagramFF           C chord diagramCC      A chord diagramAA  Dm chord diagramDmDm        Cm7 chord diagramCm7Cm7    F chord diagramFF
Verishuvi shitemasu! Gaayagaya wakuwaku
Bb chord diagramBbBb           Am chord diagramAmAm     Dm chord diagramDmDm Gm chord diagramGmGm  Am chord diagramAmAm  Bb chord diagramBbBb     C chord diagramCC
Kyou wa naisho dakedo sakusen kaigi da
F chord diagramFF          C chord diagramCC     A chord diagramAA Dm chord diagramDmDm        Cm7 chord diagramCm7Cm7      F chord diagramFF
Dotabata dogimagi Futari de gachigachi!?
Bb chord diagramBbBb               Am chord diagramAmAm    Dm chord diagramDmDm Gm chord diagramGmGm      Am chord diagramAmAm     Bb chord diagramBbBb C chord diagramCC
Kyahhahha! Iei! Yatta ne Dakedo ima wa hora
    Dm chord diagramDmDm/F chord diagramFF             C# chord diagramC#C#(#5)            F chord diagramFF             Dm chord diagramDmDm
Miru mono zenbu takaramono da yo Kono shunkan kitto subete
Bb chord diagramBbBb Am chord diagramAmAm  Gm chord diagramGmGm    F chord diagramFF     Gm chord diagramGmGm        C chord diagramCC      F chord diagramFF
Onnaji kimochi wakachiaereba Shiawase

   T (tapping)  T            T            T            T

E|--------------------------------------------------------------------------------|
B|--------------------------------------------------------------------------------|
G|-17p14p12p10--17p14p12p10--17p14p12p10--17p14p12p10--17p14p12p10----------------|  (2x)
D|--------------------------------------------------------------------------------|


E|------------------------------------|--------------------------------------------|
B|---------------------------8--------|--------------------------------------------|
G|-----------10---9----10----------10-|--------------------7-----------------------|
D|------------------------------------|-10---7---8---10----------10----7----10-----|



E|------------------------------------|--------------------------------------------|
B|-------8-----10--------10--------10-|-8-----------8------10--------8-----------8-|
G|-10---------------------------------|------10------------------------------------|
D|------------------------------------|--------------------------------------------|
                                                                                    2x

E|------------------------------------|--------------------------------------------|
B|-10---8--------------------8--------|--------------------------------------------|
G|-----------10---9----10----------10-|--------------------7-----------------------|
D|------------------------------------|-10---7---8---10----------10----7----10-----|



E|---------------------8----------8---|--------------------------------------------|
B|------8---10------------------------|-----10---------8-----10---------8----------|
G|-10---------------------------------|----------10----------------------------10--|
D|------------------------------------|--------------------------------------------|


E|--------------------------------------------|
B|-----10---------8-----10---------8----------|
G|----------10----------------------------10--|
D|--------------------------------------------|


F chord diagramFF          C chord diagramCC      A chord diagramAA  Dm chord diagramDmDm             Cm7 chord diagramCm7Cm7    F chord diagramFF
Verishuvi owaranai! Koe ni dashite wakuwaku
Bb chord diagramBbBb         Am chord diagramAmAm   Dm chord diagramDmDm Gm chord diagramGmGm  Am chord diagramAmAm  Bb chord diagramBbBb   C chord diagramCC
Nanka hirameitara Ooi ni yaru beshi
F chord diagramFF         C chord diagramCC     A chord diagramAA  Dm chord diagramDmDm     Cm7 chord diagramCm7Cm7    F chord diagramFF
Dotabata dogimagi Moriagesagegaschi!?
Bb chord diagramBbBb                 Am chord diagramAmAm     Dm chord diagramDmDm      Gm chord diagramGmGm       Am chord diagramAmAm     Bb chord diagramBbBb  C chord diagramCC
Mecchaccha! Me no mae da yo!!!!! Yuuki dashite hora
    Dm chord diagramDmDm/F chord diagramFF             C# chord diagramC#C#(#5)            F chord diagramFF                Dm chord diagramDmDm
Saa te wo tsunagi Aruki dashitara Jibun no kotoba de `sankyu!!`
Bb chord diagramBbBb Am chord diagramAmAm   Gm chord diagramGmGm   F chord diagramFF       Gm chord diagramGmGm            C chord diagramCC      F chord diagramFF
Donna toki demo watashi rashikute Ii desho?

[Final] Bb chord diagramBbBb  Am chord diagramAmAm  Dm chord diagramDmDm
        Gm chord diagramGmGm  Am chord diagramAmAm  Dm chord diagramDmDm
        Bb chord diagramBbBb  Am chord diagramAmAm  Dm chord diagramDmDm
        Gm chord diagramGmGm  C chord diagramCC  Fsus4 chord diagramFsus4Fsus4  F chord diagramFF

Other versions of Verishuvi

- VerishuviChords

Comment this song and these guitar tabs

Do you have corrections, comments on the guitar tabs, thoughts about the song or a message to the author? Write them below.