Guitar Tabs Explorer
Rammstein guitar tabs for Zwitter

Zwitter tab


Be the first to rate

Zwitter tab by Rammstein

Guitar tabs

Print

Tuning: Drop D chord diagramDD


Intro::

e|----------------------------|
B|----------------------------|
G|----------------------------|
D|----------------------------|
A|----------------------------|
D|-0-0-0-0-0-0-5-3-0-0-0-0-0-1|

e|--------------------------------|
B|--------------------------------|
G|--------------------------------| x3
D|--------------------------------|
A|--------------------------------|
D|-0-0-0-0-0-0-5-3-0-0-0-0-0-1-1-0|

e|--------------------------------|
B|--------------------------------|
G|--------------------------------| x8
D|--------------------------------|
A|-0-0-0-0-0-0-5-3-0-0-0-0-0-1-0-0|
D|-0-0-0-0-0-0-5-3-0-0-0-0-0-1-0-0|
   . . . . . .     . . . .     .


All Verses::

e|--------------------------------|
B|--------------------------------|
G|--------------------------------| x3
D|--------------------------------|
A|--------------------------------|
D|-0-0-0-0-0-0-5-3-0-0-0-0-0-1-1-0|

e|----------------|
B|----------------|
G|----------------|
D|----------------|
A|----------------|
D|-0-0-0-0-0-0-5-3|


Chorus::

e|---------------------------------|
B|---------------------------------|
G|---------------------------------|
D|-8-8-8-8-8-8-8-8-5-5-5-5-5-5-5-5-|
A|-6-6-6-6-6-6-6-6-3-3-3-3-3-3-3-3-|
D|---------------------------------|

e|----------------------------------|
B|----------------------------------|
G|----------------------------------|
D|-3-3-3-3-3-3-3-3-3-3-3-3------1-3-|
A|-1-1-1-1-1-1-1-1-1-1-1-1--1-3-----|
D|----------------------------------|

e|---------------------------------|
B|---------------------------------|
G|---------------------------------|
D|-8-8-8-8-8-8-8-8-5-5-5-5-5-5-5-5-|
A|-6-6-6-6-6-6-6-6-3-3-3-3-3-3-3-3-|
D|---------------------------------|

e|------------------------|
B|------------------------|
G|------------------------|
D|-5-5-5-5-5-5-5-5-5-5-5-5|
A|-5-5-5-5-5-5-5-5-5-5-5-5|

Other versions of Zwitter

ZwitterChords

Comment this song and these guitar tabs

Do you have corrections, comments on the guitar tabs, thoughts about the song or a message to the author? Write them below.