Guitar Tabs Explorer
Rammstein bass tabs for Wollt ihr das bett in flammen sehen

Wollt Ihr Das Bett In Flammen Sehen bass tab


Be the first to rate

Wollt Ihr Das Bett In Flammen Sehen bass tab by Rammstein

Bass tabs

Print

-----------------------------------------------------------------------------
              Wollt Ihr Das Bett In Flammen Sehen - Rammstein
-------------------------------------------------------------------------------
Tabbed by: Stancranford
E-mail: simonhawkinsuk@gmail.com

Tuning: DADG

Main Riff (Played through most of song)

G|----------------5--|
D|-------------------|
A|-5---6---5---3-----|
E|---0---0---0-------|

Breakdown
                    x7
G|-------------------|----------------|
D|-------------------|----------------|
A|-------------------|----------------|
E|-0-0-0-0--3--0--0--|-0-0-0-0--3--0--|

End

G|-------|
D|-------|
A|-5-----|
E|-------|


| /  slide up
| \  slide down
| h  hammer-on
| p  pull-off
| ~  vibrato
| +  harmonic
| x  Mute note

Comment this song and these bass tabs

Do you have corrections, comments on the bass tabs, thoughts about the song or a message to the author? Write them below.