Search tabs and chords

Search for song, artist or band

Log in

One click and you are in

Login with Facebook Login with Google

Why sign up and log in

Guitar Tabs Explorer
Rammstein guitar tabs for Wollt ihr bas bett in flammen sehen

Wollt Ihr Bas Bett In Flammen Sehen tab by Rammstein

Rammstein guitar tabs for Wollt ihr bas bett in flammen sehen

Guitar tabs

Tuning: Drop D chord diagramDD AND Standard

(This is a pretty unique song, because guitar 1 plays in standard, while guitar 2 plays in Drop D chord diagramDD)


Main Riff/Verse:

(Guitar 1)

e|---------------------|
B|---------------------|
G|---------------------|
D|-7--9--7---5--7--9--7|
A|-5--7--5---3--5--7--5|
E|-5--7--5---3--5--7--5|

e|-----------|
B|-----------|
G|-----------|x7
D|-5--7--9--7|
A|-3--5--7--5|
E|-3--5--7--5|


(Guitar 2)

e|---------------------|
B|---------------------|
G|---------------------|
D|-7--9--7---5--7--9--7|
A|-5--7--5---3--5--7--5|
D|---------------------|

e|-----------|
B|-----------|
G|-----------|x7
D|-5--7--9--7|
A|-3--5--7--5|
D|-----------|

Solo:

(Only Guitar 1 plays this, and guitar 2 plays the main riff)

e|----|
B|----|
G|----|x16
D|-15-|
A|-15-|
E|-13-|


Bridge 1:

(Guitar 1 doesn't play Bridge 1)

e|---------------------|
B|---------------------|
G|---------------------|x16
D|----------3--0---0--0|
A|-0-0-0-0--3--0---0--0|
D|-0-0-0-0--3--0---0--0|


Bridge 2:

(Both guitars play this Bridge right after Bridge 1)

(Guitar 1)

e|-----|
B|-----|
G|-----|x4
D|-5--7|
A|-5--7|
E|-3--5|

(Guitar 2)

e|-----|
B|-----|
G|-----|x4
D|-5--7|
A|-5--7|
D|-5--7|


Outro:

(Guitar 1)

e|---------------------|
B|---------------------|
G|---------------------|
D|-7--9--7---5--7--9--7|
A|-5--7--5---3--5--7--5|
E|-5--7--5---3--5--7--5|

e|-----------|
B|-----------|
G|-----------|  (repeat as needed)
D|-5--7--9--7|
A|-3--5--7--5|
E|-3--5--7--5|


(Guitar 2)

e|---------------------|
B|---------------------|
G|---------------------|
D|-7--9--7---5--7--9--7|
A|-5--7--5---3--5--7--5|
D|---------------------|

e|-----------|
B|-----------|
G|-----------|  (repeat as needed)
D|-5--7--9--7|
A|-3--5--7--5|
D|-----------|

Almost there ...

Sign in to get your own page with links to favourite songs and more. You are just one click away...

Login with Facebook Login with Google