Search tabs and chords

Search for song, artist or band

Log in

One click and you are in

Login with Facebook Login with Google

Why sign up and log in

Guitar Tabs Explorer
Rammstein guitar tabs for Vergiss uns nicht

Guitar tabs

Vergiss Uns Nicht - Rammstein
-----------------------------------------------------------------------------
Tabbed by: Bee-Ay

Tuning: C chord diagramCC-G chord diagramGG-C chord diagramCC-F chord diagramFF-A chord diagramAA-D chord diagramDD

D|------------------------------------------------------------------|
A|------------------------------------------------------------------|
F| chord diagramF|F|*-----------------------------------------------------------------|
C| chord diagramC|C|*-8-8-8-8-8-8-8-8-8-8-8-8-3-3-3-3-7-7-7-7-7-7-7-7-7-7-7-7-7-7-7-7-|
G|--8-8-8-8-8-8-8-8-8-8-8-8-3-3-3-3-7-7-7-7-7-7-7-7-7-7-7-7-7-7-7-7-|
C| chord diagramC|C|--8-8-8-8-8-8-8-8-8-8-8-8-3-3-3-3-7-7-7-7-7-7-7-7-7-7-7-7-7-7-7-7-|

D|------------------------------------------------------------------|
A|------------------------------------------------------------------|
F| chord diagramF|F|------------------------------------------------------------------|
C| chord diagramC|C|--3-3-3-3-3-3-3-3-3-3-3-3-3-3-3-3-7-7-7-7-7-7-7-7-7-7-7-7-7-7-7-7-|
G|--3-3-3-3-3-3-3-3-3-3-3-3-3-3-3-3-7-7-7-7-7-7-7-7-7-7-7-7-7-7-7-7-|
C| chord diagramC|C|--3-3-3-3-3-3-3-3-3-3-3-3-3-3-3-3-7-7-7-7-7-7-7-7-7-7-7-7-7-7-7-7-|

D|------------------------------------------------------------------|
A|------------------------------------------------------------------|
F| chord diagramF|F|------------------------------------------------------------------|
C| chord diagramC|C|--8-8-8-8-8-8-8-8-8-8-8-8-3-3-3-3-7-7-7-7-7-7-7-7-7-7-7-7-7-7-7-7-|
G|--8-8-8-8-8-8-8-8-8-8-8-8-3-3-3-3-7-7-7-7-7-7-7-7-7-7-7-7-7-7-7-7-|
C| chord diagramC|C|--8-8-8-8-8-8-8-8-8-8-8-8-3-3-3-3-7-7-7-7-7-7-7-7-7-7-7-7-7-7-7-7-|

D|-------------------------------------------------------|
A|-------------------------------------------------------|
F| chord diagramF|F|------------------------------------------------------*|
C| chord diagramC|C|--5-5-5-5-5-5-5-5-5-5-5-5-5-5-5-5-7-7-7-7-7-7-7-7-7~~-*|
G|--5-5-5-5-5-5-5-5-5-5-5-5-5-5-5-5-7-7-7-7-7-7-7-7-7~~--|
C| chord diagramC|C|--5-5-5-5-5-5-5-5-5-5-5-5-5-5-5-5-7-7-7-7-7-7-7-7-7~~--|


At the part with the string arrangement it ends with these two chords
showed in the end, before the breakdown to 3. verse:
D|----------------------------------------------------------|
A|----------------------------------------------------------|
F| chord diagramF|F|----------------------------------------------------------|
C| chord diagramC|C|--5-5-5-5-5-5-5-5-5-5-5-5-5-5-5-5-7-7-7-7-7-7-7-7-7---5--3|
G|--5-5-5-5-5-5-5-5-5-5-5-5-5-5-5-5-7-7-7-7-7-7-7-7-7---5--3|
C| chord diagramC|C|--5-5-5-5-5-5-5-5-5-5-5-5-5-5-5-5-7-7-7-7-7-7-7-7-7---5--3|

In the last Chorus the last guitar chords
just follow the cymbals to the end:
D|---------------------------------------------------------|
A|---------------------------------------------------------|
F| chord diagramF|F|---------------------------------------------------------|
C| chord diagramC|C|--5-5-5-5-5-5-5-5-5-5-5-5-5-5-5-5-7--7--7--7--7--7--5--3-|
G|--5-5-5-5-5-5-5-5-5-5-5-5-5-5-5-5-7--7--7--7--7--7--5--3-|

Almost there ...

Sign in to get your own page with links to favourite songs and more. You are just one click away...

Login with Facebook Login with Google