Search tabs and chords

Search for song, artist or band

Log in

One click and you are in

Login with Facebook Login with Google

Why sign up and log in

Guitar Tabs Explorer
Rammstein guitar tabs for Seemann (Ver. 2)

Guitar tabs with lyrics

Album: Herzeleid


PART A chord diagramAA
e|----------------------------------------------------------------------|
B|----------------------------------------------------------------------|
G|----------------------------------------------------------------------|
D|-----11-------9-------7-------6-------4-------4-------6-------6-------|
A|---0----0---0---0---0---0---0---0---0---0---0---0---0---0---0---0-----|
E|-0--------0-------0-------0-------0-------0-------0-------0-------0---|
   Komm in mein Boot...

e|---------------------------------------------------------------------|
B|---------------------------------------------------------------------|
G|---------------------------------------------------------------------|
D|---7-------6-------4-------2-----------------------------------------|
A|-0---0---0---0---0---0---0---0----4-----3-----4-----4----------------|
E|-------0-------0-------0-------00---000---000---000---000------------|
 (repeat throughout song)

PART B chord diagramBB (tremolo picking)
e|---------------------------------|
B|---------------------------------|
G|---------------------------------|
D|-11------------------------------|
A|-11------------------------------|
E|--9------------------------------|
   Jetzt stehst du da an der...

e|---------------------------------|
B|---------------------------------|
G|---------------------------------|
D|--9------------------------------|
A|--9------------------------------|
E|--7------------------------------|

e|---------------------------------|
B|---------------------------------|
G|---------------------------------|
D|--7------------------------------|
A|--7------------------------------|
E|--5------------------------------|

e|---------------------------------|
B|---------------------------------|
G|---------------------------------|
D|--6------------------------------|
A|--6------------------------------|
E|--4------------------------------|
 (Strum through Chorus, Listen to song for timing)

LYRICS:

Part "A"
Komm in mein Boot
ein Sturm kommt auf
und es wird Nacht
Wo willst du hin
so ganz allein
treibst du davon
Wer hält deine Hand
wenn es dich
nach unten zieht

Part "B" (interlude)

Part "A"
Wo willst du hin
so uferlos
die kalte See
Komm in mein Boot
der Herbstwind hält
die Segel straff

Part "B"
Jetzt stehst du da an der Laterne
mit Tränen im Gesicht
das Tageslicht fällt auf die Seite
der Herbstwind fegt die Strasse leer
Jetzt stehst du da an der Laterne
hast Tränen im Gesicht
das Abendlicht verjagt die Schatten
die Zeit steht still und es wird Herbst

Part "A"
Komm in mein Boot
die Sehnsucht wird
der Steuermann
Komm in mein Boot
der beste Seemann
war doch ich

Part "B"
Jetzt stehst du da an der Laterne
hast Tränen im Gesicht
das Feuer nimmst du von der Kerze
die Zeit steht still und es wird Herbst
Sie sprachen nur von deiner Mutter
so gnadenlos ist nur die Nacht
am Ende bleib ich doch alleine
die Zeit steht still
und mir ist kalt

Other versions of Seemann

SeemannChords
SeemannTabs

Almost there ...

Sign in to get your own page with links to favourite songs and more. You are just one click away...

Login with Facebook Login with Google