Search tabs and chords

Search for song, artist or band

Log in

One click and you are in

Login with Facebook Login with Google

Why sign up and log in

Guitar Tabs Explorer
Rammstein guitar tabs for Reise, reise

Guitar tabs

Tuning: Drop D chord diagramDD (EBGDAD)

Intro:
e|--------------------|
B|--------------------|
G|--------------------|
D|--------------------|
A|--------------------|
D|--0-3-7-5--0-0-2-2--|
Riff:
|---------------------|
|---------------------|
|---------------------|
|---------------------|
|--0-3-7-5--0-0-/9-9--|
|--0-3-7-5--0-0-/9-9--|


Verse: (Play this three times)
|--------------------------|
|--------------------------|
|--------------------------|
|--------------------------|
|--2-0-2--2-2-0-2-0-2-3----|
|--2-0-2--2-2-0-2-0-2-3----|

**Play riff again (once)

**Play verse twice

**Play riff twice

Ending: (Play this three times)
|---------------------------|
|---------------------------|
|---------------------------|
|---------------------------|
|--0-3-7-5--0-0-/9-9--0-0---|
|--0-3-7-5--0-0-/9-9--0-0---|

 ________________
|General Schema: |
|-Intro  x1      |
|-Riff   x1      |
|-Verse  x3      |
|-Riff   x1      |
|-Verse  x2      |
|-Riff   x2      |
|-Ending x3      |
|________________|

Almost there ...

Sign in to get your own page with links to favourite songs and more. You are just one click away...

Login with Facebook Login with Google